Song name
# A B C D E F G H I J K L M N O P Q R S T U V W X Y Z

John Mayer - California Dreamin tab

-------------------------------------------------------------------------------
		                     CALIFORNIA DREAMIN' - John Mayer Trio
-------------------------------------------------------------------------------
Tabbed by: Nimo

Tuning: standard



Intro

e|-------------------|   --3--|
B|-------------------|   --3--|
G|----------6--------|   --4--|
D|----5-7------8--7--|   --3--|
A|--5-----5---5--5---|   --5--|
E|-------------------|3x --3--|



Verse (just the chords, John plays around with them)

e|------------(3)--------|
B|--8---------(3)---3----|
G|--8-----7----5---5/4---|
D|--10----5----3----3----|
A|--------8----6---------|
E|--8-----6----4----3----|



===============================================================================
Tap to rate this tab
 
# A B C D E F G H I J K L M N O P Q R S T U V W X Y Z