Song name
# A B C D E F G H I J K L M N O P Q R S T U V W X Y Z

John Mayer - Human Nature tab

john mayers amazing preformance at MJ'S funeral was  completly mind blowing so i decided 
start tabing it no this is a s far as i got and this is my first tab so enjoy
clean / mid:4/trebel:6 /bass :8   rev: 5or7

e----------------------------------------------------------------/
b----------------------------------------------------------------/
g-4-6---2-4-2-------------4-7-6-4-2-4-2--------------------------/  X2
d-------------4-2------------------------------------------------/
a------------------5-2-------------------------------------------/
e----------------------3-----------------------------------------/


main verse

e-----------------------------------------------------------------|
b-----------------------------------------------------------------|
g---4--9-6-----11-9-7-6-7-6-4-2-----4-6-9-----9-p7-7-9-7-4--------|
d-----------------------------------------------------------------|
a-----------------------------------------------------------------|
e-----------------------------------------------------------------|
thats it for now ill work some more ...
Tap to rate this tab
 
# A B C D E F G H I J K L M N O P Q R S T U V W X Y Z