Guitaretab - guitar tabs
Song name
# A B C D E F G H I J K L M N O P Q R S T U V W X Y Z

John Mayer - War Of My Life tab

-------------------------------------------------------------------------------
			     War of My Life – John Mayer
-------------------------------------------------------------------------------
Tabbed by:Rwm3188
Email:

This tab was made based off of this video on youtube: http://www.youtube.com/watch?v=qE4m7ns6WCE

It’s pretty easy and straightforward, just use this as a guide and listen to the song. 

Tuning: Standard
   Chorus and Verse
e|---------------------------------------------------------------------------|
B|---------------------------------------------------------------------------|
G|---------------------------------------------------------------------------|
D|-------------------------11-9-11-9--------x4-------------------------------|
A|-11-9-11-9--------x4------0-0--0-0----------------11-9-11-9-----x4---------|
E|--0-0--0-0-----------------------------------------0-0--0-0----------------|
[ Tab from: http://www.guitaretab.com/j/john-mayer/191016.html ]
e|---------------------------------------------------------------------------|
B|---------------------------------------------------------------------------|
G|--9----------9-------------9-----------------------------------------------|
D|--7---x3-----6---x5--------7------x8---------------------------------------|
A|--0----------0-------------0-----------------------------------------------|
E|---------------------------------------------------------------------------|
  “No more suffering…”
e|---------------------------------------------------------------------------|
B|---5-----------------7--------------------4-------------------5------------|
G|---6-----------------8--------------------4-------------------6------------|
D|---7-----x8----------9--------x8----------x------x8-----------7-----x4-----|
A|---x-----------------x--------------------6-------------------x------------|
E|---5-----------------7--------------------4-------------------5------------|

e|---------------------------------------------------------------------------|
B|---5-------------7---------------------------------------------------------|
G|---6-------------8---------------------------------------------------------|
D|---7----x8-------9--------x8-----------------------------------------------|
A|---x-------------x-----------------------11-9-11-9-----etc-----------------|
E|---5-------------7------------------------0-0--0-0-------------------------|



| /  slide up
| \  slide down
| h  hammer-on
| p  pull-off
| ~  vibrato
| +  harmonic
| x  Mute note
===============================================================================
Related for War Of My Life tab