Song name
# A B C D E F G H I J K L M N O P Q R S T U V W X Y Z

John Mayer - Free Fallin tab

Hey everyone, I saw a video on youtube
and I really liked what the guy was playing, so I sat down and tabbed some of it for you 
to 1:31 of the video) watch the video to get
timing, and enjoy.


Standard Tuning (E,A,D,G,B,E)
Capo on Third


h = hammer on
p = pull off
/ = slide
v = vibrato


E--------------------------------------------------------|
B--------------------------------------------------------|
G--------------------------------------------------------|
D-0h2-2h4v-0--0-0-0-0h2v-4------0h2-2h4v-0----0-0-0-0h2v-|
A--------------------------------------------------------|
E--------------------------------------------------------|


E---------------------------------------------------------|
B---------------------------------------------------------|
G---------------------------------------------------------|
D-0h2--2h4--7--2v----0-0--------------0-0-0h2---5p4--5/7v-|
A------------------------4--2-----------------------------|
E-------------------------------5v------------------------|


E-----------------------------------------------------|
B-----------------------------------------------------|
G--7h9p7/6v-------------------------------------------|
D------------5/7/5-4--4/2---0--0------------5p4--5/7v-|
A---------------------------------4--2----------------|
E---------------------------------------5v------------|


E----------------------------------------------------|
B----------------------------------------------------|
D----------------------------2-----------------------|
G------5/7/5-4--4/2---0h2h4------------0h2-2h4-0-----|
A-------------------------------4v-------------------|
E----------------------------------------------------|


E------------------------------------------------------|
B------------------------------------------------------|
D------------------------------4-2---------------------|
G---0-0-0-0h2-4----0h2-2h4-0---------0h2v----0h2-2h4-0-|
A------------------------------------------------------|
E------------------------------------------------------|


E----------------|
B----------------|
D----------------|
G---0-0-0--------|
A----------4-2---|
E--------------5-|
Tap to rate this tab
# A B C D E F G H I J K L M N O P Q R S T U V W X Y Z