Song name
# A B C D E F G H I J K L M N O P Q R S T U V W X Y Z

John Mayer - I Think She Knows tab

-------------------------------------------------------------------------------
                         I Think She Knows (Interlude) 
      Composed By Justin Timberlake, Timbaland, Danjahandz and John Mayer
-------------------------------------------------------------------------------

Tabbed By: Molsonoilers


This tab is simply a representation of the notes that I believe John plays 
in his version of the interlude of Justin Timberlake's 'I Think She Knows'. 
I am not going to put in the expressive elements of this song (vibrato, 
etc.) as I'm sure as John Mayer fans, you'll know that he uses it pretty 
much everywhere he can. As well, I spent only a couple of hours on this and 
as such, there may be a few mistakes, but I believe that it is pretty close
to perfect. If you'd like to know where to use the loop effect I would 
suggest the guitar pro version as it has the basics of the loop system 
right, but not much of the guitar is actually correct. I think we all need 
to thank John Mayer as well for recording this so well and sharing his 
musical ability. 

Standard Tuning and No Capo (Obviously)

e-----------------------------------------------------------------------|
B-----------------------------------------------------------------------|
G-----------------------------------------------------------------4-4-4-|
D-2-2-2-2-2-2-2-2-0-0-0-----------5-5-5-5-5-5-5-5-4-4-4-2-2-2-2-2-2-2-2-|
A-----------------------3-3-3-3-3---------------------------------------|
E-----------------------------------------------------------------------|

E--------------------------------------------------------------|
B---------------------------0-0-0-0-0-0-0-0-0-0-0-0-0-0-0-0----|
G-4-4-4-4-4-2-2-2-0-0-0-0-0-7-7-7-7-7-7-7-7-9-9-9-4-4-4-4-4----|
D-2-2-2-2-2-0-0-0----------------------------------------------|
A--------------------------------------------------------------|
E--------------------------------------------------------------|

e--------------------------------------------------------------------------|
B-------3-----------------------------------------3--------------------3---|
G-0h2p0------4-4-2---2------------------0h5s4-2-0------4-4-2---2-------2h4-|
D------------------5------5----3s2p0-------------------------5----5--------|
A--------------------------------------------------------------------------|
E--------------------------------------------------------------------------|

e---------------
B-3---3---3-----
G-4---4---4-----
D---0---0---5---
A---------------
E---------------



e-----------------------------------------------------------------------|
B-3---3-3---3---3---3---3---3---3-------3---3---3---3---3---3-3---3-3-3-|
G-2---2-2h4-4---4---4---2---2h4-3s2-----2h4-4---4---4---2---2-2---0-4-4-|
D---5---------0---0---5---5---------5-2-------0---0---5---5-----5-------|
A-----------------------------------------------------------------------|
E-----------------------------------------------------------------------|

e--------------------------------------------------------------------------------------------|
B-3---3-3---15----15---15---15----15----15--15-15---15---15----15----15----15----------15-15-|
G-2---2-0---14h16-16---16---16----14----14--17-16---16---16----14----14h16-15s14-------16-16-|
D---5---5------------0----0----17----17-----------0----0----17----17-------------17-14-------|
A--------------------------------------------------------------------------------------------|
E--------------------------------------------------------------------------------------------|

e--------------------------------------------------------------------------------------|
B---15---15----15----15----15----15-15-15-15----15-15--3-3-3-3---3-3-2s4-7-----4-7-----|
G---16---16----14----14----14-------16-16-14----14-14--0-4-4-2---2-0-------4-2-----4-5-|
D-0----0----17----17----17----17-------------17----17----------5---5-------------------|
A--------------------------------------------------------------------------------------|
E--------------------------------------------------------------------------------------|

|-----------------------------------------------------------------------------------------|
|----------------------------------------12----------12-------15----15---15---15----15----|
|-2s4-7-----4-7-----7-12-7-4-7-12-7-9-12----12-11-12----12-14-14h16-16---16---16----14----|
|-------4-2-----4-5----------------------------------------------------0----0----17----17-|
|-----------------------------------------------------------------------------------------|
|-----------------------------------------------------------------------------------------|

|------------------------------------------------------------|
|-15-15----15---15---15----15----15----15----------15----15--|
|-14-14h16-16---16---16----14----14h16-15s14-------14h16-16--|
|-------------0----0----17----17-------------17-14----------0|
|------------------------------------------------------------|
|------------------------------------------------------------|

|-------15-------------------------|                       
|----------14----------------------|
|-14s16-------16s14p12-14s16s14p12-|  First time...
|----------------------------------|
|----------------------------------|
|----------------------------------|

|-------15-------------------------|                       
|----------14----------------------|
|-14s16-------16s14p12-14p12-------|  then 13x more. 
|----------------------------------|  
|----------------------------------|
|----------------------------------|



|--------------------------------------------15----|
|--------------------------------------------------|
|--------------------------------------14s16-------|
|--14p12----------------------------12-------------|
|--------14p12-12p10-------10h12s14----------------|
|--------------------12p10-------------------------|




| /  slide up
| \  slide down
| h  hammer-on
| p  pull-off
| ~  vibrato
| +  harmonic
| x  Mute note



-----------------------------------------------------------------------------
Tap to rate this tab
 
# A B C D E F G H I J K L M N O P Q R S T U V W X Y Z