Song name
# A B C D E F G H I J K L M N O P Q R S T U V W X Y Z

John Mayer - Vultures Acoustic tab

this is my first tab so please dont be harsh. i would like to thank Gabe Opio for 
the main part of this tab but i made a few changes


Intro/verse (Clean)

e------------------------------------------------|
b--------9~--7------------9-9--7-----------------|
g--9--6--9~--6------9--6--9-9--6-----------------|
d--9---------------9--------------9--------------|
a------------------------------------------------|
E------------------------------------------------|

the chorus im not to sure about but this is what i think it is

Chorus
e-----------------------------------|
b------9v-9------9--9v--------------|
g--9---9v-9---9--9--9v--------------|
d--9----------9---------------------|
a-----------------------------------|
E-----------------------------------|
Tap to rate this tab
# A B C D E F G H I J K L M N O P Q R S T U V W X Y Z