Song name
# A B C D E F G H I J K L M N O P Q R S T U V W X Y Z

John Mayer - Perfectly Lonely tab

-------------------------------------------------------------------------------
			    Perfectly Lonely - John Mayer
-------------------------------------------------------------------------------
Tabbed by: kurrent	

my favorite song from the battle studies album so far...picked up the guitar and 
tried to figure out the beginning. this is only meant to be a rough start till 
somebody who really knows what they are doing comes along and does it right. 


e|---------------------------------------------------------------------------|
B|--13/15---13/15---18-17--15-13---------------------------------------------|
G|--12/14---12/14------------------------------------------------------------|
D|---------------------------------15~~~-------------------------------------|
A|---------------------------------------------------------------------------|
E|---------------------------------------------------------------------------|

e|---------------------------------------------------------------------------|
B|--13/15---13/15---18-17--15-13---------------------------------------------|
G|--12/14---12/14------------------12~~~---12h14h16p12~~---------------------|
D|---------------------------------------------------------------------------|
A|---------------------------------------------------------------------------|
E|---------------------------------------------------------------------------|

e|----------------------------------------------13---------------------------|
B|--15b17-15b17~~~~---------13~~~h15-----15b17-----15b17r15~~~~--------------|
G|------------------12h14----------------------------------------------------|
D|---------------------------------------------------------------------------|
A|---------------------------------------------------------------------------|
E|---------------------------------------------------------------------------|

e|------------------------------15b17(17)r15v~~~~~~--------------------------|
B|---------------------------------------------------------------------------|
G|---14b16r14p12--12~~h(14)--------------------------------------------------|
D|--------------14-----------------------------------------------------------|
A|---------------------------------------------------------------------------|
E|---------------------------------------------------------------------------|

The verse of the song is just a simple C, F, Dm, G progression. Have fun.



| /  slide up
| \  slide down
| h  hammer-on
| p  pull-off
| ~  vibrato
| +  harmonic
| x  Mute note
===============================================================================
Tap to rate this tab
# A B C D E F G H I J K L M N O P Q R S T U V W X Y Z