Song name
# A B C D E F G H I J K L M N O P Q R S T U V W X Y Z

John Mayer - Do You Know Me tab

This is the tab for the song "Do You Know Me" off of his new album 'Battle Studies'


------9--------------7--------7----------|
----------10-----------10--------10------|
----9---9---------9--------9-------------|
--0-------------0------------------------|
-----------------------------------------|
-----------------------------------------| x4

-----3--2---0----------------3--2----0-------|
----------3-----3---3--------------3----0----|
--------------4---0-----------------------2--|
---------------------------------------------|
---------------------------------------------|
--3------------------------3-----------------|
Tap to rate this tab
 
# A B C D E F G H I J K L M N O P Q R S T U V W X Y Z