Song name
# A B C D E F G H I J K L M N O P Q R S T U V W X Y Z

John Mayer - Friends Lovers Or Nothing tab

-----------------------------------------------------------------------------
		Friends Lovers Or Nothing (Intro) - John Mayer
-----------------------------------------------------------------------------
Tabbed by: tearhere619
Email: jv061891@gmail.com

Tuning: Standard

e|--------------------------------------------------------------------------|
B|------------------|-------10-12b14-10---------14/12p10---------------12/--|
G|------------------|---6-9-------------9----------------11-----------------|
D|---9/11-9---------|-7-------------------11-13---------------------11------|
A|-----------11/9-7-|------------------------------------------9-12---------|
E|--------------------------------------------------------------------------|

e|---------------------------|
B|--14/12-10-------10----10--|
G|-----------11-------12-----|
D|--------------12-----------|
A|---------------------------|
E|---------------------------|

| /  slide up
| \  slide down
| h  hammer-on
| p  pull-off
| ~  vibrato
| +  harmonic
| x  Mute note
=============================================================================
Tap to rate this tab
 
# A B C D E F G H I J K L M N O P Q R S T U V W X Y Z