Song name
# A B C D E F G H I J K L M N O P Q R S T U V W X Y Z

John Mayer - Edge Of Desire tab

	John Mayer - Edge of Desire

Tabbed/Interpreted by Colin Lee

	*STANDARD TUNING*


INTRO/VERSE:
-----------|------------|
-----------|------------|
-----------|-----6-4----|  (Repeat x1)
---6---9-6-|---4-----7--|
-7---7-----|-7----------|
-----------|------------|


-----------------|---------------|
-----------------|---------------|
-----------------|------11-9-----|  (Repeat x1)
----11----14-11--|----9------12--|
-12----12--------|-12------------|
-----------------|---------------|


------------|-----------|
------------|-----------|
-------7----|---6-7-----|
---7-----9--|-------9---|
-9---9------|-9-------9-|
------------|-----------|


-----------------|-----------|
---10---9---7----|-----------|
-----------------|--7-6------|
-9----9---9---9--|--9-9-9-7--|
-----------------|-----------|
-----------------|-----------|


-----------|------------|-------------|---------------|
-----------|------------|-------------|---------------|
-----------|-----6-4----|-------------|-7---6---4-----|
---6---9-6-|---4-----7--|----6---9-6--|---7---7---7---|
-7---7-----|-7----------|--7---7------|---------------|
-----------|------------|-------------|---------------|


CHORUS: (main riffs - repeats throughout)

Riff (1)		Riff (2) played quickly
---10-11-7-----|	|-----------------|
-----------11--|	|-----------------|
---------------|	|--6---7---6------|
---------------|	|----7---7---7----|
---------------|	|-----------------|
---------------|	|-----------------|


BRIDGE/SOLO SECTION:
---------------|
---------------|
---6-7-9-7-6---|  (Repeats)
---------------|
---------------|
---------------|


SOLO:
-----------------------------|----------------------------|
--12b14--12b14--12b14r12~~ --|--10--12--14--14--12--12----|
-----------------------------|----------------------------|
-----------------------------|----------------------------|
-----------------------------|----------------------------|
-----------------------------|----------------------------|


-----------------------------|-------------------|------------------------|
--10--12--14--14b15--14--14--|(Repeat prev. bar)-|---12b14r12p11p10---10--|
-----------------------------|-------------------|------------------11----|
-----------------------------|-------------------|------------------------|
-----------------------------|-------------------|------------------------|
-----------------------------|-------------------|------------------------|


----------12----|-----10-12-14b16r14p13p12--17--|
----12b14----14-|--14---------------------------|
----------------|-------------------------------|
----------------|-------------------------------|
----------------|-------------------------------|
----------------|-------------------------------|



That's all folks!
Please rate, thank you! :)

_______________________THE END_______________________________

Tap to rate this tab
# A B C D E F G H I J K L M N O P Q R S T U V W X Y Z