Song name
# A B C D E F G H I J K L M N O P Q R S T U V W X Y Z

John Mayer - Half Of My Heart tab

-------------------------------------------------------------------------------
			    Half Of My Heart-John Mayer
----------------------------------------------------------------------------
Tabbed by: cutting edge

I tabbed this from a live pre-release bootleg. I know it's not perfect, but I think it's 
close. The words are sort-of matched up. I couldn't be bothered to get it any better. Enjoy!

Tuning:Standard

e|----------------------------------------------------|
B|----------------------------------------------------|
G|--------0--------0--------------0--------0--2-------|
D|-----3--------3---------------5--------3------------|
A|--1-----------------3------/3--------5--------------|
E|-----------1----------------------------------------|


e|-----------------------------------------------------|
B|-----------------------------------------------------|
G|--------0--------0--------------0--------0-------0---|
D|-----3--------3---------------5--------5-------------|
A|--1-----------------3------/3--------3------3--------|
E|-----------1-----------------------------------------|


e|-----------------------------------------------------|
B|-----------------------------------------------------|
G|--------0--------0--------------0--------0--2--------|
D|-----3--------3---------------5--------3-------------|
A|--1-----------------3------/3--------5---------------|
E|-----------1-----------------------------------------|


e|------------------------------------------------------|
B|------------------------------------------------------|
G|--------0--------0----------------0--------0----------|
D|-----3--------3---------3------3--------3-----3-------|
A|--1--------1---------1------1--------1-----------0----|
E|------------------------------------------------------|


e|----------------------------------------------------|
B|----------------------------------------------------|
G|--------0--------0--------------0--------0--2-------|
D|-----3--------3---------------5--------3------------|
A|--1-----------------3------/3--------5--------------|
E|-----------1----------------------------------------|
  I was born in the        arms    of  imagin-ary

e|-----------------------------------------------------|
B|-----------------------------------------------------|
G|--------0--------0--------------0--------0-------0---|
D|-----3--------3---------------5--------5-------------|
A|--1-----------------3------/3--------3------3--------|
E|-----------1-----------------------------------------|
    friends

e|-----------------------------------------------------|
B|-----------------------------------------------------|
G|--------0--------0--------------0--------0--2--------|
D|-----3--------3---------------5--------3-------------|
A|--1-----------------3------/3--------5---------------|
E|-----------1-----------------------------------------|
   free to roam    made a home out of everywhere I've

e|-----------------------------------------------------|
B|-----------------------------------------------------|
G|--------0--------0--------------0--------0-------0---|
D|-----3--------3---------------5--------5-------------|
A|--1-----------------3------/3--------3------3--------|
E|-----------1-----------------------------------------|
    been
Tap to rate this tab
 
# A B C D E F G H I J K L M N O P Q R S T U V W X Y Z