Song name
# A B C D E F G H I J K L M N O P Q R S T U V W X Y Z

John Mayer - Assassin tab

|----------------11b(r)-10----------10------12b12r-10b---------12b12r- 10-----------10------|
|-------12-12-10-----------12-10-12--------------------------------------12-10h12-----12----|
|-16b---------------------------------------------------------------------------------------|
|-------------------------------------------------------------------------------------------|
|-------------------------------------------------------------------------------------------|
|-------------------------------------------------------------------------------------------|

|-14b(16)-12-14--------------------------------------------7--------7--------------------------|
|---------------12-15b(17)--14p12h14--15b(17)----------------10b(12)--10p7---------------------|
|----------------------------------------------------9b(11)----------------9-9b(11)p7---7---7--|
|-------------------------------------------------------------------------------------9---9----|
|----------------------------------------------------------------------------------------------|
|----------------------------------------------------------------------------------------------|


|---12b(14)-10b(12)--10b(12)-10------------------14b(17)-12-14---------------------------------|
|------------------------------10p12---------------------------12-15b(17)--14p12h14--15b(17)---|
|----------------------------------------------------------------------------------------------|
|----------------------------------------------------------------------------------------------|
|----------------------------------------------------------------------------------------------|
|----------------------------------------------------------------------------------------------|
Tap to rate this tab
# A B C D E F G H I J K L M N O P Q R S T U V W X Y Z