Song name
# A B C D E F G H I J K L M N O P Q R S T U V W X Y Z

John Mayer - I Got A Woman tab

I GOT A WOMAN

John Mayer

Originally written by Ray Charles

Transcribed by Danleary

Standard Tuning

Key

 ^ : Bend [1/4, 1/2, 1, etc.]
 v : Bring bend back down
 / : Slide into
 \ : Slide out of
 h : Hammer on
 p : Pull off
(-): Ghost note
 = : Vibrato
 x : Mute
 T : Fret with thumb
_____________________________________________________________________________

Intro


1:00                1:02                    1:o5                    1:07

e|-------------------|-----------------------|-----------------------|
B|-------------------|-------5-5------5-5-x--|-------5-5------5-5----|
G|-------------------|-------4-4------4-4-x--|-------4-4------4-4----|
D|-------------------|-------5-5------5-5-x--|-------5-5------5-5----|
A|-------------------|-----------------------|-----------------------|
E|-----5-5----x-5-5--|--------------5--------|--------------5--------|
       T                            T                       T

1:07                    1:10                    1:13                   1:15

e|-----------------------|-----------------------|----------------------|
B|-------5-5------5-5----|-----7----------5-5----|--7-5-----------------|
G|-------4-4------4-4----|-----7-5--------4-4----|--5-5--5---5-----5----|
D|-------5-5------5-5----|----------5-----5-5----|-------------7--------|
A|-----------------------|-----------------------|-------------------7--|
E|--------------5--------|--------------5--------|----------------------|
                T                       T

1:15                      1:18                    1:20                   1:23
                                        [1/4]                   [1/4]        
e|-------------------------|-----------------------|------------------------|
B|--7-5--5-----------/10\--|--7-5------------------|--------------------10\-|
G|--5-5--5---5-----5-------|--7-5--5---5------5----|--7-5--5---7------5-----|
D|-------------6-----------|-------------7^--------|-------------7^---------|
A|-------------------------|--------------------7--|------------------------|
E|-------------------------|-----------------------|------------------------|


1:23                    1:26                    1:28                     1:31
              [1/4]                                           [1/4]
e|-----------------------|-----------------------|------------------------|
B|-----------------------|--7----------------5\--|--5---------------------|
G|--7-5--5---7------5----|--7-5--5---5-----x-----|----4--5---5------5-----|
D|-------------7^--------|-----------------------|-------------5^---------|
A|--------------------7--|-------------7---------|--------------------7---|
E|-----------------------|-----------------------|------------------------|


1:31                    1:33

e|-----------------------|
B|-----------------------|
G|--5--------------------|
D|----5--7---------------|
A|-----------------------|
E|-----------------------|
_____________________________________________________________________________

Verse


1:51       1:54                             1:57                        1:59
                 A7                        E9
e|------x---|----5-x-x-5---4-5---5---4-5---7-|--7-x-x-7---7---7---7-x-x-7-x-|
B|------x---|----5-x-x-5---4-5---5---4-5---7-|--7-x-x-7---7---7---7-x-x-7-x-|
G|------x---|----6-x-x-6---5-6---6---5-6---7-|--7-x-x-7---7---7---7-x-x-7-x-|
D|------x---|----5-x-x-5---4-5-0-5-0-4-5---6-|--6-x-x-6---6---6---6-x-x-6-x-|
A|----------|------------------------------7-|--7-x-x-7---7---7---7-x-x-7-x-|
E|----------|--------------------------------|------------------------------|


1:59                     2:02                           2:04              
    A7          D9           A7                        D9
e|--5-x-x-5---x-5-5----5--|--5-x-x-5-----5-x-5-x-4-5-5-5-|
B|--5-x-x-5---x-5-5----5--|--5-x-x-5-----5-x-5-x-4-5-5-5-|
G|--6-x-x-6---x-5-5----5--|--6-x-x-6-----6-x-6-x-5-6-6-5-|
D|--5-x-x-5---x-4-4----4--|--5-x-x-5---4-5-x-5-x-4-5-5-4-|
A|--------------5-5----5--|----------------------------5-|
E|------------------------|------------------------------|

       
2:04                          2:07
    
e|-x-5-x-4-5---4-5-x-5-x-x---5-|
B|-x-5-x-4-5---4-5-x-5-x-x---5-|
G|-x-5-x-4-5---4-5-x-5-x-x---5-|
D|-x-4-x-3-4---3-4-x-4-x-x---4-|
A|-x-5-x-4-5---4-5-x-5-x-x---5-|
E|-----------------------------|


And that's the gist of it, just alternate between those A7, D9, and E9 chords.
Throw a flat and a mute in here and there. Very basic funk technique.

______________________________________________________________________________

The solo works off of F# and A minor pentatonic. I'll get around to it eventually.
Tap to rate this tab
# A B C D E F G H I J K L M N O P Q R S T U V W X Y Z