Song name
# A B C D E F G H I J K L M N O P Q R S T U V W X Y Z

John Mayer - Good Love Is On The Way Acoustic chords

Highlighted       Show chord diagrams
My first song here on UG, please comment and rate :)


-------------------------------------------------------------------------------
			     Good Love is on the way (Acoustic) - John Mayer
-------------------------------------------------------------------------------
Tabbed by: Kim Princis


        Ab         Db/Gb
e|------4------------1-------------------------------------------------------|
B|------4------------2-------------------------------------------------------|
G|------5------------1-------------------------------------------------------|
D|------6------------3-------------------------------------------------------|
A|------6------------4-------------------------------------------------------|
E|------4------------2-------------------------------------------------------|


Intro:
It goes over the chords Ab and Db/Gb along with a riff. Fret the Gb in the second 
chord with your thumb!


e|---------------------------------------------------------------------------|
B|--------------------------------------2------1-----------------------------|
G|--------------------------------------1------2-----------------------------|
D|--6--------6-----3-4-3---3------------3----3-3-3-----3-4-3---3-------------|
A|--6--------6-6----------6---4-3-------4----4---4-4---------6---4-3---------|
E|--4----4-8-4---4----------------6-----2----2---2---2---------------6-------|
    e.   s s s s s  s s s s s s s s     e.   s s s s s s s s s s s s s

Second Guitar:
Simply plays the chords in the background from measure 5, comes in on the last 2 beats 
measure 4 with two damp hits. Then plays like this:

e|-------4-------------------------4-------------------------------------------|
B|-------4--------------------6----6-------------------------------------------|
G|--5----5--------------------6------------------------------------------------|
D|--6-------------------------6------------------------------------------------|
A|--6--------------------------------------------------------------------------|
E|-----------------------------------------------------------------------------|
    e.                        e.

Verse:
Same chords but played softer, vary your comp with palm muting.

Chorus:
Db     Db/Gb     Ab      Ab


I will tab out more of his comp later, this is just the very basics of the song but it 
very well to use just playing a normal comp.
Tap to rate this tab
 
# A B C D E F G H I J K L M N O P Q R S T U V W X Y Z