Song name
# A B C D E F G H I J K L M N O P Q R S T U V W X Y Z

John Mayer - Perfectly Lonely tab

e|------------------13-12---------------------------------------------------|
B|--13/15---13/15---15-13--15-13------8h10~~~-------------------------------|
G|--12/14---12/14--------------------10---~~~-------------------------------|
D|--------------------------------------------------------------------------|
A|--------------------------------------------------------------------------|
E|--------------------------------------------------------------------------|

e|------------------13-12---------------------------------------------------|
B|--13/15---13/15---15-13--15-13---10h12~~~------10h12p10-------------------|
G|--12/14---12/14------------------12~~~~~~--------------12~~~--------------|
D|--------------------------------------------------------------------------|
A|--------------------------------------------------------------------------|
E|--------------------------------------------------------------------------|

e|------------------------------------------------------13------------------|
B|--15b(15)b---------------------------13~~~h15-----15b-----15b(15)~~~~-----|
G|------------------12h14---------------------------------------------------|
D|--------------------------------------------------------------------------|
A|--------------------------------------------------------------------------|
E|--------------------------------------------------------------------------|

e|---------------------------------------20---------------------------------|
B|-----------------------------------20b----(20)b---------------------------|
G|---14b16r14p12--12~~h(14)-------------------------------------------------|
D|--------------14----------------------------------------------------------|
A|--------------------------------------------------------------------------|
E|--------------------------------------------------------------------------|

Tap to rate this tab
# A B C D E F G H I J K L M N O P Q R S T U V W X Y Z