Song name
# A B C D E F G H I J K L M N O P Q R S T U V W X Y Z

John Mayer - Perfectly Lonely tab

Tabbed by: Ciaran Hosty
Standard Tuning (E A D G B e)
My First Tab, so forgive me for mistakes 

e|---------------------------------------------------------------------------|
B|--------------8-10--------8-10---------------------------------------------|
G|------5-7-/9-------/9-/9-------10-/9-7-/5---/5-----------------------------|
D|--5h7-------------------------------------7----7-5-------------------------|
A|---------------------------------------------------------------------------|
E|---------------------------------------------------------------------------|

e|-----------------10-------------13------------------13---------------------|
B|------------8-10----/13-/13-16B----16-13-13-----16B----16-13-13------------|
G|-----5-7-/9---------------------------------14-----------------14----------|
D|-5-7-----------------------------------------------------------------------|
A|---------------------------------------------------------------------------|
E|---------------------------------------------------------------------------|

e|---15B--15B-17--20~--------------------------------------------------------|
B|---------------------------------------------------------------------------|
G|---------------------------------------------------------------------------|
D|---------------------------------------------------------------------------|
A|---------------------------------------------------------------------------|
E|---------------------------------------------------------------------------|

Key

B = Bend
/ = Slide
h = hammer-on
~ = vibrato
Tap to rate this tab
# A B C D E F G H I J K L M N O P Q R S T U V W X Y Z