Song name
# A B C D E F G H I J K L M N O P Q R S T U V W X Y Z

John Mayer - Perfectly Lonely tab

------------------------------------------------------------------------------
                   Perfectly Lonely (Intro) - John Mayer
------------------------------------------------------------------------------
Tabbed by: Prekip
Tuning: Standard



e|-----------------------------------------------------------------------------|
B|--13/15--13/15---18-17---15-13-----------13/15--13/15---18-17--15-13--/12~---|
G|--12/14--12/14-----------14-12--/14~-----12/14--12/14----------14-12--/12~---|
D|-----------------19-17----------/15~--------------------19-17----------------|
A|-----------------------------------------------------------------------------|
E|-----------------------------------------------------------------------------|

e|-------------------------------------------------------------13--------------|
B|------------------15b17r15b17~--------13----13--15~-----15b17--15b17r15~-----|
G|--14h16p14p12----------------------/14--(14)---------------------------------|
D|-----------------------------------------------------------------------------|
A|-----------------------------------------------------------------------------|
E|-----------------------------------------------------------------------------|

e|-------------------------------20-------------|
B|--------------------------20b22--20b22r20~----|
G|--14b16r14p12--12~14--------------------------|
D|-------------14-------------------------------|
A|----------------------------------------------|
E|----------------------------------------------|



************************************
| /   slide up
| \   slide down
| h   hammer-on
| p   pull-off
| ~   vibrato
| +   harmonic
| x   Mute note
| b   Bend
| pb  Pre-bend
| br  Bend release
| pbr Pre-bend release
| brb Bend release bend
************************************
Tap to rate this tab
 
# A B C D E F G H I J K L M N O P Q R S T U V W X Y Z