Song name
# A B C D E F G H I J K L M N O P Q R S T U V W X Y Z

John Mayer - Heartbreak Warfare tab

-----------------------------------------------------------------------------
	        Heartbreak Warfare (Acoustic) - John Mayer
-----------------------------------------------------------------------------
Tabbed by: joey_c_13

Tuning: Standard (EADGBe)

Hint: Use your thumb on the E string of the first chord.


Verse /Chorus
-------------------------------------------------------------------|
-----------------------------------6-6-6-6-7-7-7-7-6-6-6-6-7-7-7-7-|
--6-6-6-6-7-7-7-7-6-6-6-6-7-7-7-7--7-7-7-7-7-7-7-7-7-7-7-7-7-7-7-7-|
--7-7-7-7-7-7-7-7-7-7-7-7-7-7-7-7--5-5-5-5-5-5-5-5-5-5-5-5-5-5-5-5-|
--7-7-7-7-7-7-7-7-7-7-7-7-7-7-7-7----------------------------------|
--5-5-5-5-5-5-5-5-5-5-5-5-5-5-5-5----------------------------------|


If you want more...
--2-2-2-2-5-5-5-5---------------------------------|
--2-2-2-2-5-5-5-5-6-6-6-6-7-7-7-7-6-6-6-6-7-7-7-7-|
--2-2-2-2-6-6-6-6-7-7-7-7-7-7-7-7-7-7-7-7-7-7-7-7-|
--4-4-4-4-7-7-7-7-5-5-5-5-5-5-5-5-5-5-5-5-5-5-5-5-|
--4-4-4-4-7-7-7-7---------------------------------|
--2-2-2-2-5-5-5-5---------------------------------|


Just say so...
----------------------|
----------------------|
--9--9--9--9--4-4-4-4-|
--10-10-10-10-5-5-5-5-|
--8--8--8--8--3-3-3-3-|
----------------------|


How come the only way to...
-------------------------------------------------|
-------------------------------------------------|
-9--9--9--9--9--9--9--9--9--9--9--9--9--9--9--9--|
-10-10-10-10-10-10-10-10-10-10-10-10-10-10-10-10-|
-8--8--8--8--8--8--8--8--8--8--8--8--8--8--8--8--|
-------------------------------------------------|

--------------------------------                 ---|
--------------------------------                 ---|
-4-4-4-4-4-4-4-4-4-4-4-4-4-4-4-4                 -6-|
-5-5-5-5-5-5-5-5-5-5-5-5-5-5-5-5   It ends with  -7-|  then back to verse
-3-3-3-3-3-3-3-3-3-3-3-3-3-3-3-3                 -7-|
--------------------------------                 -5-|
Tap to rate this tab
 
# A B C D E F G H I J K L M N O P Q R S T U V W X Y Z