Song name
# A B C D E F G H I J K L M N O P Q R S T U V W X Y Z

John Mayer - War Of My Life tab

Tabbed By: Mike

The other tab for this is pretty solid but it was missing a lot of the more detailed 
so here's the full song with every part tabbed out

Standard Tuning

h = hammer on
p = pull of
r = release bend
~ = let ring
/ = slide up

Intro:

Rythm
e----------------------------------------------------------------------------|
B----------------------------------------------------------------------------|
G---------------------------------------------------------999-999-9999999999-|
D--------------------11-9-11-9---x4-----------------------777-666-7777777777-|
A-11-9-11-9---x4------0-0--0-0-----------11-9-11-9---x4---000-000-0000000000-|
E--0-0--0-0-------------------------------9-9--9-9---------------------------|


Lead
e----------------------------------------------------------------------------|
B--9------------1010--99----------1010-12--9--------10---9-7--9--0-----------|
G--9------------1111--99----------1111-11--9---------9---9-9--9--9-----------|
D--9-------------9-9--99-----------9-9-----9---------9---9-9----11-----------|
A---------------------00-----------0-0---------------------0-----0-----------|
E--0-------------0-0-----------------------9---------9-----------------------|


Verse/Chorus:

e----------------------------------------------------------------------------|
B----------------------------------------------------------------------------|
G---------------------------------------------------------999-999-9999999999-|
D--------------------11-9-11-9---x4-----------------------777-666-7777777777-|
A-11-9-11-9---x4------0-0--0-0-----------11-9-11-9---x4---000-000-0000000000-|
E--0-0--0-0-------------------------------9-9--9-9---------------------------|


Verse 2 Lead part - let notes ring out
(that little part played on the piano on the SECOND HALF of verse 2)
e---12-11~--------------12-11~--------------12-11~--------------------12~----|
B---------12~-----------------12~-----------------12~-----12-------12~-------|
G------------13~-----------------13~-----------------13~--------14~----------|
D----------------------------------------------------------------------------|
A----------------------------------------------------------------------------|
E----------------------------------------------------------------------------|


Bridge - "All the sufferring..."

(One measure each)
e-----------------------------------------------------|
B---5--------7--------4--------5--------5--------7----|
G---6--------8--------4--------6--------6--------8----|
D---7--------9--------6--------7--------7--------9----|
A---7--------9--------6--------7--------7--------9----|
E---5--------7--------4--------5--------5--------7----|


Play Chorus and then the Bridge Again


Solo:

Rythm (Same as the verse/chorus)
e----------------------------------------------------------------------------|
B----------------------------------------------------------------------------|
G---------------------------------------------------------999-999-9999999999-|
D--------------------11-9-11-9---x4-----------------------777-666-7777777777-|
A-11-9-11-9---x4------0-0--0-0-----------11-9-11-9---x4---000-000-0000000000-|
E--0-0--0-0-------------------------------9-9--9-9---------------------------|

Lead
e----------------------------------------------------------------------------|
B-12-9~-------9h12p9-12--9----9h12p9h12-/14-9-----(10)r9p0---9--7------------|
G-11-9~-------9(11)--11--9----9h11p9h11-----9--------------6-----6~----------|
D--9-9~-------9-------9--9----9-------------9--------------------------------|
A----------------------------------------------------------------------------|
E----------------------------------------------------------------------------|

Note: (10)r9 means strum on 9th fret bent up a half step and then release the bend


Interlude
  "I'm in the war... life, at the ... life, out of time... Nowhere
e----------------------------------------------------------------------------|
B----------------------------------------------------------------------------|
G----------------------------------------------------------------------------|
D----------------------------------------------------------------------------|
A--11~----------------9~---------------11~--------------------9--x16---------|
E---0~----------------0~----------------9~--------------------7--------------|

Final chorus - Repeat as the song fades out

Rythm (again, same as before. Put it here for reference)
e----------------------------------------------------------------------------|
B----------------------------------------------------------------------------|
G---------------------------------------------------------999-999-9999999999-|
D--------------------11-9-11-9---x4-----------------------777-666-7777777777-|
A-11-9-11-9---x4------0-0--0-0-----------11-9-11-9---x4---000-000-0000000000-|
E--0-0--0-0-------------------------------9-9--9-9---------------------------|

Lead
e----------------------------------------------------------------------------|
B--9~----------------10~------------------9~--------------10~----------------|
G--9~-----------------9~------------------9~---------------9~----------------|
D--9~-----------------9~------------------9~---------------9~----------------|
A----------------------------------------------------------------------------|
E----------------------------------------------------------------------------|


Order:

Intro - Verse - Chorus
Verse - Bridge - Chorus
Bridge - Solo - Interlude
Verse/Chorus
Tap to rate this tab
# A B C D E F G H I J K L M N O P Q R S T U V W X Y Z