Song name
# A B C D E F G H I J K L M N O P Q R S T U V W X Y Z

John Mayer - Gravity Live tab

-------------------------------------------------------------------------------
			    Gravity Intro (Where the Light is) - John Mayer
-------------------------------------------------------------------------------
Tabbed by: Dstriz09
Email: Dstriz09@gmail.com

	Hello fellow musicians and all of the sort! Keep in mind that this is my first
tab, so be gentle...please!  Anyway, as far as the intro goes, he does some crazy
fast movements that Im not exactly able to pick out, but I think I have the outline
of it done pretty well.  To me, it sounds like hes sliding up and down a whole lot, 
hence why I tabbed this mostly on the D string. Enjoy! Also, e-mail me with any questions, 
concerns, or mistakes. Sorry if anything is wrong, by the way. 

Tuning: Standard

*****************

| /   slide up
| \   slide down
| h   hammer-on
| p   pull-off
| +   harmonic

*****************

	Be sure to listen to the song for the correct timing.

e|---------------------------------------------------------------------------|
B|---------------------------------------------------------------------------|
G|---------------------------------------------------------------------------|
D|---12/14\12/14\9\7/9\7\5----5h7h9/12/14/17\14h15p12------------------------|
A|---------------------------------------------------------------------------|
E|---------------------------------------------------------------------------|



e|---------------------------------------------------------------------------|
B|---------------------------------------------------------------------------|
G|---------------------------------------------------------------------------|
D|----7---9----12p10\9\7\5---------7/9/12/7/9/12/14/17/14/12/14/9---7/11/7---|
A|-----------------------------7---------------------------------------------|
E|---------------------------------------------------------------------------|



e|---------------------------------------------------------------------------|
B|-----------------------------------13--12-----13--12-----------------------|
G|-----------------------------------14--12-----14--12---14--12--11------12--|
D|----5h7h9p7p5-------------(7)--------------------------12------12--14------|
A|--------------- -7p5------(5)----------------------------------------------|
E|------------------------8--------------------------------------------------|



e|---------------------------------------------------------------------------|
B|--12h13--------------------------------------------------------------------|
G|--12-----------------------------------------------------------------------|
D|---------14-----12h14p12-------------12-12h14p12------------12-12h14p12----|
A|-------------------------15-14-15---------------15-14-15-------------------|
E|---------------------------------------------------------------------------|



e|---------------------------------------------------------------------------|
B|------------------------------------------------13-12---13-12---13--12-----|
G|-------------------------------------------12-----------14-12---14--12-----|
D|---------------------------------10/12/14----------------------------------|
A|----15-14-12---------------------------------------------------------------|
E|--------------15-12-10--8/10/12--------------------------------------------|

e|-------------------------------------10----------------10------------------|
B|---------------------------------12+----12+--------12+---12+---------------|
G|----14---12---12-------------12+-----------12+--12+---------12+------------|
D|----12--------14-----------------------------------------------------------|
A|-------------------------10-------------------10---------------------------|
E|---------------------------------------------------------------------------|
         I got dreams...


e|------------12+------------12+-------------------t--------------------------|
B|---------13----13--------13---13---------------a----------------------------|
G|-----12+---------12+--12+-------12+----------e------------------------------|
D|--14----------------14-------------------- p--------------------------------|
A|-----------------------------------------e----------------------------------|
E|---------------------------------------r------------------------------------|
		Keep repeating from the part where he starts singing. Stop the
		pattern when he stops in the song and continues with Gravity.
Tap to rate this tab
# A B C D E F G H I J K L M N O P Q R S T U V W X Y Z