Song name
# A B C D E F G H I J K L M N O P Q R S T U V W X Y Z

John Mayer - Assassin tab

This tab is by Sean.  Please correct if you can.  This was done by air.  If you can do
please do.

Drop D

Tuning: dadgad

x= hit/tab strings

Intro

d------------------------|----------------------------------------|
a------------------------|----------------------------------------|
g------7----x----6----6-x|------6---x---6---x---------------------|
d----0------x----0--0---x|----0-----x---0---x                 x 2-|
a------------------------|----------------------------------------|
d--9--------x----9------x|--7-------x---7---x---------------------|


Verse x 2

d------------------|-------------------------------|
a------------------|-------------------------------|
g------7-x-6----6-x|------2---x---2---x------------|
d----0---x-0--0---x|----0-----x---0---x------------|
a------------------|-------------------------------|
d--9-----x-9------x|--5-------x---5---x------------|

d------------------------|--------------------|
a------------------------|--------------------|
g------7----x----6----6-x|------6---x---6---x-|
d----0------x----0--0---x|----0-----x---0---x-|
a------------------------|--------------------|
d--9--------x----9------x|--7-------x---7---x-|

pre-chorus

d-------------------|
a-------------------|
g------0-x-0----0-x-|
d----0---x-0--0---x-|
a-------------------|
d--2-----x-2------x-|

d------------------|-------------------------------|
a------------------|-------------------------------|
g------7-x-6----6-x|------2---x---2---x------------|
d----0---x-0--0---x|----0-----x---0---x----x-2-----|
a------------------|-------------------------------|
d--9-----x-7------x|--5-------x---5---x------------|

d------------------|---------------------------------|
a------------------|---------------------------------|
g------7-x-6----6-x|------4---x---4---x-------6--6---|
d----0---x-0--0---x|----0-----x---0---x-----0----0---|
a------------------|---------------------------------|
d--9-----x-9------x|--5-------x---5---x---7------7---|

Now go back and start from intro and continue through to chorus.  The chorus is not 
think the tuning needs to be changed to 'dadgad' to for the chorus to sound right.

Chorus

e--0--0----0--0--0--0-|--0--0----0--0--0--0--------------|
b--0--0----0--0--0--0-|--0--0----0--0--0--0--------------|
g--7--7----6--6--6--6-|--2--2----1--1--1--1--------------|
d--0--0----0--0--0--0-|--0--0----2--2--2--2-----x-4------|
a---------------------|----------2--2--2--2--------------|
d--9--9----7--7--7--7-|--5--5----2--2--2--2--------------|

Bridge

I don't know this yet so if  anyone can help with it please do.
Tap to rate this tab
# A B C D E F G H I J K L M N O P Q R S T U V W X Y Z