Song name
# A B C D E F G H I J K L M N O P Q R S T U V W X Y Z

John Mayer - Crossroads tab

#----------------------------------PLEASE NOTE---------------------------------#
#This file is the author's own work and represents their interpretation of the #
#song. You may only use this file for private study, scholarship, or research. #
#------------------------------------------------------------------------------##
Tabbed by Liam McMonies www.myspace.com/liammcmonies
This is basically it. John mixes it up a little bit but this is the basics.

Gtr I (E A D G B E) - 'Crossroads'

  Q=115
 4/4
  Gtr I
  E e e E S e S E E   E e e E S e S E E
|-------------------|-------------------||
|-------------------|-------------------||
|---2-0-2---0---2---|---2-0-2---0---2---||
|---2-0-2---0---2---|---2-0-2---0---2---||
|-0-----------0---3-|-0-----------0---3-||
|-------------------|-------------------||


  E e e E S e S E E   E e e E S e S E E
|-------------------|-------------------||
|-------------------|-------------------||
|---2-0-2---0---2---|---2-0-2---0---2---||
|---2-0-2---0---2---|---2-0-2---0---2---||
|-0-----------0---3-|-0-----------0---3-||
|-------------------|-------------------||


  E e e E S e S E E   E e e E S e S E E
|-------------------|-------------------||
|-------------------|-------------------||
|---2-0-2---0---2---|---2-0-2---0---2---||
|---2-0-2---0---2---|---2-0-2---0---2---||
|-0-----------0---3-|-0-----------0---3-||
|-------------------|-------------------||


  E e e E S e S E E   E e e E S e S E E
|-------------------|-------------------||
|-------------------|-------------------||
|---2-0-2---0---2---|---2-0-2---0---2---||
|---2-0-2---0---2---|---2-0-2---0---2---||
|-0-----------0---3-|-0-----------0---3-||
|-------------------|-------------------||


    E e e E S e S E E   E e e E S e s E E
||--------------------|--------------------||
||o-------------------|--------------------||
||----2-0-2---0---2---|---7-5-7---5---5----||
||----2-0-2---0---2---|---7-5-7---5---5----||
||o-0-----------0---3-|-5-----------7---7--||
||--------------------|--------------------||


  E e e E S e S E E   E e e E S e S E E
|-------------------|-------------------||
|-------------------|-------------------||
|---2-0-2---0---2---|---2-0-2---0---2---||
|---2-0-2---0---2---|---2-0-2---0---2---||
|-0-----------0---3-|-0-----------0---3-||
|-------------------|-------------------||


                                     ~
  E e e E S e s E E   E e S  E e s e Q
|-------------------|------------------||
|-------------------|------------------||
|---7-5-7---5---5---|---7-5-h7-5---5---||
|---7-5-7---5---5---|---7-5--7-5---5---||
|-5-----------7---7-|-5----------7---7-||
|-------------------|------------------||


  E e e E S e S E E   E e e E S e S E E
|-------------------|-------------------|
|-------------------|-------------------|
|---2-0-2---0---2---|---2-0-2---0---2---|
|---2-0-2---0---2---|---2-0-2---0---2---|
|-0-----------0---3-|-0-----------0---3-|
|-------------------|-------------------|


      ~~                        ~
  E E H.        S S E E E E. E. E
|-------------|-------------------|
|-------------|-----------0-------|
|-------------|-------0------0----|
|-----4-------|-----4---4-------4-|
|---4---------|-3s5---------------|
|-2-----------|-------------------|


  E e e E S e S E E   E e e E S e S E E
|-------------------|--------------------||
|-------------------|-------------------o||
|---2-0-2---0---2---|---2-0-2---0---2----||
|---2-0-2---0---2---|---2-0-2---0---2----||
|-0-----------0---3-|-0-----------0---3-o||
|-------------------|--------------------||


Duration Legend
---------------
W - whole; H - half; Q - quarter; E - 8th; S - 16th; T - 32nd; X - 64th; a - acciaccatura
+ - note tied to previous; . - note dotted; .. - note double dotted
Uncapitalized letters represent notes that are staccato (1/2 duration)
Irregular groupings are notated above the duration line
Duration letters will always appear directly above the note/fret number it represents the
duration for.  Duration letters with no fret number below them represent rests.  Multi-
bar rests are notated in the form Wxn, where n is the number of bars to rest for.  Low
melody durations appear below the staff

Tablature Legend
----------------
 h   - hammer-on
 p   - pull-off
 b   - bend
 pb  - pre-bend
 r   - bend release (if no number after the r, then release immediately)
 /\  - slide into or out of (from/to "nowhere")
 s   - legato slide
 S   - shift slide
  - natural harmonic
[n]  - artificial harmonic
n(n) - tapped harmonic
 ~   - vibrato
 tr  - trill
 T   - tap
 TP  - trem. picking
 PM  - palm muting
\n/  - tremolo bar dip; n = amount to dip
 \n  - tremolo bar down
 n/  - tremolo bar up
/n\  - tremolo bar inverted dip
 =   - hold bend; also acts as connecting device for hammers/pulls
 <>  - volume swell (louder/softer)
 x   - on rhythm slash represents muted slash
 o   - on rhythm slash represents single note slash

Misc Legend
-----------
 |  - bar
||  - double bar
||o - repeat start
o|| - repeat end
*|  - double bar (ending)
 :  - bar (freetime)
 $  - Segno
 &  - Coda
Tempo markers -  = BPM(8/16=s8/s16), where s8 = swing 8ths, s16 = swing 16ths


***************************************************************************************
* Generated using Power Tab Editor by Brad Larsen - http://powertab.guitarnetwork.org *
***************************************************************************************
Tap to rate this tab
# A B C D E F G H I J K L M N O P Q R S T U V W X Y Z