Song name
# A B C D E F G H I J K L M N O P Q R S T U V W X Y Z

John Mayer - Gravity tab

From the note4noteus YT video:
http://www.youtube.com/watch?v=XKYRPXbJRU0&feature=related

E--------------------------------------|
B-----8-8--10b-10b~--------------------|
G-3s9----------------------------------|
D--------------------------------------|
A--------------------------------------|
E--------------------------------------|

E----------------------------------------|
B-----8-8--10b-10b--10-10~---------------|
G-3s9------------------------------------|
D----------------------------------------|
A----------------------------------------|
E----------------------------------------|

E--------------------------------------|
B-----8-8--10b-10b~--------------------|
G-3s9----------------------------------|
D--------------------------------------|
A--------------------------------------|
E--------------------------------------|


E---------------------------------------------|
B------8-8~-10b-10~--8-8~-(pickups)8------10~-|
G--------------------------------9--------9---|
D-3s9-----------------------------------------|
A---------------------------------------------|
E---------------------------------------------|
Tap to rate this tab
 
# A B C D E F G H I J K L M N O P Q R S T U V W X Y Z