John Mayer - Doa Death Of Auto-tune Live tab

-------------------------------------------------------------------------------
		D.O.A (Death Of Auto-Tune) Live - John Mayer
-------------------------------------------------------------------------------
Standard Tuning, no capo

This is the live version with Jay-Z at the Answer The Call Benefit in Madison Square Garden

* try not to take the tab too literally. its best to play it with your own style.
** In case you'll need it, here's the video:
      
           http://www.youtube.com/watch?v=G1soDJzDfL4

-->questions/corrections? comment.


Intro 

  (0:04)
e|-x-x-x-x-x-x---x--x--x----x-------|
B|-7-7-7-7-7/9--/12-12-12---11\-----|
G|-7-7-7-7-7/9--/12-12-12---11\-----|
D|-8-8-8-8-8/11-/14-14-14---12\-----|
A|-9-9-9-9-9/11-/14-14-14---13\-----|
E|-x-x-x-x-x-x---x--x--x----x-------|
   D U D U       D  U  D      

  (0:14)
e|-----------------------------------------|
B|-----------------------------------------|
G|-16p13-12--------------------------------|
D|----------16-14~--14-14-14-14-14-14------|
A|-----------------------------------------|
E|-----------------------------------------|
                    D  U  D  U  D  U  

Verse

  (0:36)
e|----11-11/13-11p9-11-9-11p9h11p9------11-11/13-11p9-11-9-11/13-11p9--------|
B|-11--------------------------------11--------------------------------------|
G|---------------------------------------------------------------------------|
D|---------------------------------------------------------------------------|
A|---------------------------------------------------------------------------|
E|---------------------------------------------------------------------------|
  (0:44)
e|--------------------------------|
B|------------------------6~------|
G|-8/10-\-8p6-8/10-\-8p6--8b^~----|
D|-*scrape these notes*-----------|
A|--------------------------------|
E|--------------------------------|

Bridge 

  (0:54)
e|---------------------------------------------------------------------------|
B|----9h11h13p11h13-11p9h11-9p8p7h9-9p8p7h9-7~-------------------------------|
G|-10---------------------------------------9b^~-9p8p7h9---------------------|
D|-------------------------------------------------------9p8p7------7h8h9~~--|
A|-------------------------------------------------------------9p8p7---------|
E|---------------------------------------------------------------------------|

  (1:02)
e|--------------------6~-----|
B|--------------------6~-----|
G|--------------------6~-----|
D|-------------8--8~--x------|
A|-8-8-11-8-11----8~--x------|
E|----------------8~--6~-----|


Trumpets 

  (1:35)
e|----------18-20b^v---------------------------------------------------------|
B|-18-18-18----------------/18-18-16-18b^v~~----------------------/20~-18~-\-|
G|------------------18~-----------------------/20-20-20-20-18-18\------------|
D|---------------------------------------------------------------------------|
A|---------------------------------------------------------------------------|
E|---------------------------------------------------------------------------|


The rest is pretty easy to figure out because it's close to the same thing... 

spoonfeeding will not make you a better guitarist :]

************************************

| /   slide up
| \   slide down
| h   hammer-on
| p   pull-off
| ~   vibrato
| x   Mute note
| b   Bend
| D   strum down
| U   strum up
| b^  bend a bit more than normal. the more ^'s, the more you bend. feel it.
| b^v bend up, then back down


************************************
Tap to rate this tab
 
# A B C D E F G H I J K L M N O P Q R S T U V W X Y Z