John Mayer - Crossroads tab

Tab by Spencer Ouellette
Just a heads up, if the "brp" notation confuses anyone, it just means release the 
pre-made bend and then pull off to the next note.
Please post comments and corrections for a better tab!

E|----------------------|---------------------|
B|--5-5~----------------|-5-5h8p5-5-----------|
G|---7---7p5-----5b(6)--|--7-----7-7-5---5b(6)|
D|----------7-5-7-------|-------------7-7-----|
A|----------------------|---------------------|
E|----------------------|---------------------|

E|----------------------|-------5----------------------|
B|------5-8-7-7p5-------|--7brp5--7p5------5-----------|
G|---5h7---------h7p5---|------------7--5h7-5----------|
D|-7-----------------h7-|-------------7------7---------|
A|----------------------|---------------------7p5\3b(4)|
E|----------------------|------------------------------|

E|-----------------------|----------------------------|
B|-----------------------|--13b(14)-15-13-13b(14)-----|
G|--------------5b(6)----|--14-------------------14---|
D|---------7-5/7---------|-------------------------14-|
A|----3-5/7--------------|----------------------------|
E|---5-------------------|----------------------------|

E|---------------------------------|-----------------------------------------|
B|--------12-----------------------|------------8-10-13b(15)-13b(15)-13b(14)-|
G|-12b(14)-------------------------|-------5-7-9-----------------------------|
D|----------14\12-14\12p10--10-----|----5-7----------------------------------|
A|------------------------12--12p10|-5/7-------------------------------------|
E|---------------------------------|-----------------------------------------|

E|---------------------------------|-12b(15)-12------10------10h12-----------------------|
B|-13b(15)-13-12brp10-10--13-10----|-----------13b(15)-13b(15)----13b(14)-10--10-13b(14)-|
G|----------------------12---------|----------------------------------------12-----------|
D|-----------------------------12\-|-----------------------------------------------------|
A|---------------------------------|-----------------------------------------------------|
E|---------------------------------|-----------------------------------------------------|

E|-12b(15)-12b(14)-12-10------17\--12b(14)--------------|----7b(8)r(7)-5----------------------|
B|----------------------13-10------------13b(14)-10--10-|-5-7---------------------------------|
G|-------------------------------------------------12---|----------------5br-7-5b(6)----------|
D|------------------------------------------------------|-------------------7------7----------|
A|------------------------------------------------------|---------------------------7\5-3-5p3-|
E|------------------------------------------------------|-------------------------------------|

E|--------------------------|----------------------|
B|--------------------------|------10~-------------|
G|--------------------------|-----9----------------|
D|--7-7-5-7p5-7-5-----7-5-7-|--/10-----------------|
A|-------------------0------|----------------------|
E|---------------8b(9)------|----------------------|
Tap to rate this tab
 
# A B C D E F G H I J K L M N O P Q R S T U V W X Y Z