Song name
# A B C D E F G H I J K L M N O P Q R S T U V W X Y Z

John Mayer - Slow Dancing In A Burning Room Live tab

This is the well known intro from the dvd 'Where the light is' - Live in LA

|----------------------------------------------|------------------|---------|
|-------9------5h7-5------------------9-9------|-5h7-5-5--5-5-5-5-|-5-5-5-5-|
|-6-8-9-9-11-9-6-6-4------11-8h9-8S=9-9-9-11-9-|-6-6-4-4--4-4-4-4-|-4-4-4-4-|
|-6-9-9----9-9-7-7-6-9S11----9---9S11-----11-9-|-7-7-6S7--7-6-4---|-7-6-4---|
|----------------------------------------------|----------------7-|-------7-|
|--------------5-5-5---------------------------|-5-5-5-5----------|---------|

|-------------------------------|
|-9-10S12-9---------------------|
|-9-11S13-9-11--9-8-----------9-|
|------------9-11-9-11-9-9----9-|
|-------------------11-9-9h11---|
|-------------------------------|

|-----------12-----------|-12---------------------------|
|-5h7-5S7-5-12-----------|-12------------12-------------|
|-6-6-6S8-4----11p9------|----11p9-------11-11h13-13p11-|
|-7-7-7S9-6---------11p9-|---------11p9-----------------|
|------------------------|------------------------------|
|-5-5-5---5--------------|------------------------------|

                                                                      H.=H
|-------------------|---12--------------12---------12---------|-----------|
|---------------5h7-|-5-12--------------12---------12-10-9----|-5h7-5-----|
|-9-------------6-6-|-4----11p9----8--9-----9-8--9-----9-9--9-|-6-6-4-----|
|---11-9----9-7-7-7-|-6---------11-9-11----11-9-11---------11-|-7-7-6-----|
|--------11---------|-----------------------------------------|-----------|
|---------------5-5-|-5---------------------------------------|-5-5-5-----|

H= hammer on
p= pull off
S= slide
Tap to rate this tab
 
# A B C D E F G H I J K L M N O P Q R S T U V W X Y Z