John Mayer - Wait Till Tomorrow tab

John Mayer Trio
Wait Until Tomorrow Solo
TRY!
Guitar tuned half step down

~ = vibrato
b = bend
x = dead notes


Solo Intro lick (2:59-3:03)
eb-------------------------------------------------------------------------------------------|
Bb-------------------------------------------------------------------------------------------|
Gb--12------------------12-------------------12~~~~~~~~~~~12~~~~~~~~~~~~~~~------------------|
Db-------14-12---------------14-12-----------------------------------------------------------|
Ab-------------14------------------14--------------------------------------------------------|
Eb-------------------------------------------------------------------------------------------|


Bends (3:03-3:10)
eb-------------------------------------------------------------------------------------------|
Bb-------------------------------15----------------------------------------------------------|
Gb--14b16---14b16 hold bend-----fret, pick both, release bend, pulloff to 12~~~~14-12--------|
Db------------------------------------------------------------------------------------14-12--|
Ab-------------------------------------------------------------------------------------------|
Eb-------------------------------------------------------------------------------------------|


eb---------12-----12-----12-----12-----12----------------------------------------------------|
Bb------12----15b----15b----15b----15b----15b------------------------------------------------|
Gb--14b--------------------------------------------------------------------------------------|
Db-------------------------------------------------------------------------------------------|
Ab-------------------------------------------------------------------------------------------|
Eb-------------------------------------------------------------------------------------------|


Super fast run (3:10-3:12)
eb--12----------------12---------------------------------------------------------------------|
Bb-----15-12----12-15----15----12-----------15----12------------------12---------------------|
Gb-----------14-------------------14-12--------------14-12------12-14----14-12----12---------|
Db--------------------------------------14-----------------14------------------14------------|
Ab-------------------------------------------------------------------------------------------|
Eb-------------------------------------------------------------------------------------------|


Descending lick (3:12-3:16) (left hand muting, strumming/raking all the strings feel)
eb-------------------------------------------------------------------------------------------|
Bb--14-x-14-12~~------------------------------14-x-14-12~~-----------------------------------|
Gb--14-x-14-12~~------------------------------14-x-14-12~~-----------------------------------|
Db---------------14-12-14-12-------------------------------14-12-14-12-----------------------|
Ab---------------------------14-13-12----------------------------------14-13-12--------------|
Eb------------------------------------15-12-------------------------------------15-12--------|


More bends (3:16-3:21)
eb------12-----12-----12-----12-----12-----12-----12-----12-----12-----12-----12-------------|
Bb--15b----15b----15b----15b----15b----15b----15b----15b----15b----15b----15b----------------|
Gb-------------------------------------------------------------------------------------------|
Db-------------------------------------------------------------------------------------------|
Ab-------------------------------------------------------------------------------------------|
Eb-------------------------------------------------------------------------------------------|


Bendy descending lick 2 (3:21-3:26)
eb-15-12--------------12-------12--------------------------------------------------------------|
Bb-------15-12-----12----15b------------14-12--------14-12----12~~~----------------------------|
Gb-------------14b----------------14-12-14-12----12--14-12----12~~~----------------------------|
Db--------------------------------------------14-----------14------14-12-14-12-----------------|
Ab-----------------------------------------------------------------------------14-13-12--------|
Eb--------------------------------------------------------------------------------------15-12--|


Solo outro strumming (3:26-3:29)
eb-x-17-xx-17-xx-17-xx-17-xx-17-xx-17-xx-17-------19-tremelo pick----------------------------|
Bb-x-14-xx-14-xx-14-xx-14-xx-14-xx-14-xx-14-------21-tremelo pick----------------------------|
Gb-------------------------------------------------------------------------------------------|
Db-------------------------------------------------------------------------------------------|
Ab-------------------------------------------------------------------------------------------|
Eb-------------------------------------------------------------------------------------------|
Tap to rate this tab
 
# A B C D E F G H I J K L M N O P Q R S T U V W X Y Z