Song name
# A B C D E F G H I J K L M N O P Q R S T U V W X Y Z

John Mayer - I Dont Need No Doctor tab

Tabbed by: Sean Tocker
Mail: thorgaard@live.dk

Hey guys
I thought you should have the right tabs for this awesome song. Here you go!

Intro:

e|-----------0----------------------------------------|
B|--------------3p0---------3p0------2p0--------------|
G|-----0h1------------0-----4p0------2p0---0h1p0h1----|
D|----------------------------------------------------|
A|----------------------------------------------------|
E|--0---------------------3------(2)------------------|

e|----------0-----------------------------0-----------|
B|-------------3p0----------3-------------------------|
G|-----0h1------------0-----4------/11-------11-------|
D|---------------------------------/12----------------|
A|----------------------------------------------------|
E|--0--------------------3----------------------------|


Verse:

e|-----------0----------------------------------------|
B|--------------3p0---------3p0------2p0--------------|
G|-----0h1------------0-----4p0------2p0---0h1p0h1----|
D|----------------------------------------------------|
A|----------------------------------------------------|
E|--0---------------------3------(2)------------------|

e|----------0-------------------------------|
B|-------------3p0----------3p0----2p0------|
G|-----0h1------------0-----4p0----2p0------|
D|--------------------------------------2---|
A|------------------------------------------|
E|--0--------------------3------(2)---------|

Now this next part is tabbed as I play it, but John Mayer plays it a bit different, but 
worry, it's the exact same chords.

e|------3----3-3-----3\------------------5---7--|
B|------5----5-5-----5\-------3----3-----3---5--|
G|----4---4--5-5-----5\-------0----0-----4---6--|
D|----------------------------4----4------------|
A|-/4--------5-5---5--\----/3----3--------------|
E|-------------------------------------5---7----|

Now play the verse once and then comes the next part.

I just wrote the chords down here, so you can figure out how to play'em yourself, 
be too hard ;)

e|--7----5----3----5--|
B|--5----3----3----3--|
G|--6----4----5----4--|
D|--------------------|
A|--------------------|
E|--7----5----3----5--|

There you go, the rest should be easy to figure out yourself. For the solo remember 
blue notes ;) Good Luck!
Tap to rate this tab
 
# A B C D E F G H I J K L M N O P Q R S T U V W X Y Z