Song name
# A B C D E F G H I J K L M N O P Q R S T U V W X Y Z

John Mayer - Message In A Bottle tab

The other versions of this song were close, but i wanted to make one 100% accurate. ENJOY!!

Intro

E--------------------------------------|
B--------------------------------------|
G------8------4--------6---------------|  X2
D------------------------------6/7-----|
A--0-4----0-0-----0-2-------4----------|
E-------------------------2------------|

E--------------------------------------|
B--------------------------------------|
G------8------4--------6---------------|
D------------------------------6/7-----|
A--0-4----0-0-----0-2-------4----------|
E-------------------------2------------|
Tap to rate this tab
 
# A B C D E F G H I J K L M N O P Q R S T U V W X Y Z