Guitaretab - guitar tabs
Song name
# A B C D E F G H I J K L M N O P Q R S T U V W X Y Z

John Mayer - Belief Live tab

-------------------------------------------------------------------------------
			     Belief (Live) - John Mayer
-------------------------------------------------------------------------------
Tabbed by: Bas
Email: b_vice@hotmail.com

This is the intro solo for the 'Where The Light Is' live version of Belief.
I think it's pretty accurate note-wise, but I probably missed some of his
slides and rakes, so if anyone has suggestions for improvements I'd be glad
to hear from you :)

Have fun playing!


Tuning: EADGBE


		   [slightly bend 10th fret and hold]  
e|---------------------------------------------------------------------------|
B|---------------------------------------------------------------------------|
G|------------------10sbh12p10b-12p10b-12p10b-12b14r12p10--------------------|
D|---------------12---------------------------------------12-12-p10----------|
A|-10h12~--------------------------------------------------------------------|
E|---------------------------------------------------------------------------|

e|---------------------------------------------------------------------------|
B|---------------------------------------------------------------------------|
G|----10-12-12b14~-----------10-12-10h12-10h12-10-10-12----------------------|
D|-12---------------------12-------------------------------------------------|
A|-----------------------X---------------------------------------------------|
E|---------------------------------------------------------------------------|
			                              [slowly release]
e|---------------------------------------------------------------------------|
B|--13b15~---13p10-13-13-10----10b11r10~----10-10--8-------8---8b10r8p6------|
G|-------------------------------------------------------5---5----------7----|
D|---------------------------------------------------------------------------|
A|---------------------------------------------------------------------------|
E|---------------------------------------------------------------------------|
[ Tab from: http://www.guitaretab.com/j/john-mayer/257863.html ]
e|---------------------------------------------------------------------------|
B|---------------------------------------------------------------------------|
G|-10/12~--p10----10~-\7-----------------------------------------------------|
D|-------------12--------10p7\5-------5/7\5----------------------------------|
A|------------------------------8p5---------8p5-3/5\3/5\3/5h8--3/5\3/5\\-----|
E|---------------------------------------------------------------------------|

e|---------------------------------------------------------------------------|
B|---------------------------------------------------------------------------|
G|-5/7~-\5/7\5/7\5/7h10p7-5-----5---------------------------5-5h7-5h7b8r7p5--|
D|X-------------------------7\6---7\6------5/6\5------5/7--------------------|
A|-------------------------------------8p5--------8p5------------------------|
E|---------------------------------------------------------------------------|

e|------------------------------------------------------------------10-13b15~|
B|-----------------------------------------------------------8-10/12---------|
G|---------------------------------------------------------7-----------------|
D|7\6-----5/6\5~-------------------------------------5-7/9-------------------|
A|----8p5--------8p5-3/5b6r5\3--------------3-5/7~---------------------------|
E|------------------------------5p3-----3/5----------------------------------|
							                        [about 20 times]
e|--15b17r15p13-----12b13r12p10----------------------------------------------|
B|-X---------------X--------------13~----------------------------------------|
G|X---------------X--------------X12b14-14r12-10-----------------------------|
D|------------------------------X----------------12-10----10h12p10etc. X-----|
A|-----------------------------------------------------12---------------X----|
E|-----------------------------------------------------------------------X---|
 [All hammerons and pulloffs here are thrills!]
e|-----X-------------X------------X------------X-----------------------------|
B|----X-------------X------------X------------10h12p10.....------------------|
G|---X-------------X------------10h12p10..---X-------------------------------|
D|--X-------------10h12p10..---X------------X--------------------------------|
A|-10h12p10..----X------------X------------X---------------------------------|
E|X-------------X------------X------------X----------------------------------|


************************************

| /   slide up
| \   slide down
| h   hammer-on
| p   pull-off
| ~   vibrato
| +   harmonic
| x   Mute note
| b   Bend
| pb  Pre-bend
| br  Bend release
| pbr Pre-bend release
| brb Bend release bend

************************************
Related for Belief Live tab
Belief Live chords by John Mayer