John Mayer - Heart Of Life tab

This is in standard tuning, so you don't need to tune your guitar half a step down for 
this song. Enjoy


e------------------------------------------------------------------------|
B--16/18~---------16/18--16-------------------------16-------------------|
G------------------------------18-17b---13-13~-----------17b-------------|
D------------------------------------------------------------------------|
A------------------------------------------------------------------------|
E------------------------------------------------------------------------|

e------------------------------------------------------------------------|
B---------14------16--16/18----------18\16-------------------------------|
G--13h15-----------------------------------------------------------------|
D------------------------------------------------------------------------|
A------------------------------------------------------------------------|
E------------------------------------------------------------------------|

e----------------16------------------------------------------------------|
B--16/18~------------18\16-------------16--------------------------------|
G---------------------------18--17b-------17b----13--17b-----------------|
D------------------------------------------------------------------------|
A------------------------------------------------------------------------|
E------------------------------------------------------------------------|

e------------------------------------------------------------------------|
B---------14------16--16/18----------18\16-------------------------------|
G--13h15-----------------------------------------------------------------|
D------------------------------------------------------------------------|
A------------------------------------------------------------------------|
E------------------------------------------------------------------------|
Tap to rate this tab
 
# A B C D E F G H I J K L M N O P Q R S T U V W X Y Z