Song name
# A B C D E F G H I J K L M N O P Q R S T U V W X Y Z

John Mayer - Heartbreak Warfare tab

                  John Mayer - Heartbreak Warfare

Intro: (Itīs played with Delay, so the notes (17) are just repeated by the Delay)

---------------------------------------------------|
--------17--(17--17--17)----------17--(17--17--17)-|
----14-----------------------14--------------------|
---------------------------------------------------|
-0------------------------0------------------------|
---------------------------------------------------|

--------17--(17--17--17)----------17--(17--17--17)-|
--------17--(17--17--17)----------17--(17--17--17)-|
----14------------------------14-------------------|
-0------------------------0------------------------|
---------------------------------------------------|
---------------------------------------------------|

Verse: (same)

---------------------------------------------------|
--------17--(17--17--17)----------17--(17--17--17)-|
----14-----------------------14--------------------|
---------------------------------------------------|
-0------------------------0------------------------|
---------------------------------------------------|
                                                       4 times
--------17--(17--17--17)----------17--(17--17--17)-|
--------17--(17--17--17)----------17--(17--17--17)-|
----14------------------------14-------------------|
-0------------------------0------------------------|
---------------------------------------------------|
---------------------------------------------------|

then: Chorus:

        more love                Why donīt you say
------------------------------------------------|
---------2--(2--2--2)---------------------------|
---------2--(2--2--2)-------------4--(4--4--4)--|
-----4-----------------------2------------------|
-------------------------0----------------------|
-2----------------------------------------------|

            so?                      If you want
------------------------------------|
--------2--(2)--------3--------2----|
-----2----------------2--------2----|
-0----------------0---------0-------|   2 times
------------------------------------|
------------------------------------|

Verse 2:

Same as 1st


Then Guitar Solo: (Fingers)w Overdrive/Distortion Pedal

---------------------------------------------------------------------|
-17~-----------20--------------17~--------20--18--17--18p17---17~//--|
-----------19-------16~----------------------------------------------|
---------------------------------------------------------------------|
---------------------------------------------------------------------|
---------------------------------------------------------------------|

---------------------------------------------------------------------------|
-17---20///22---22~--------17------------------17----------------20----17--|
---------------------------17---17--19------19-----------------------------|
---------------------------19-----------0---------19---19p17--17----19-----|
---------------------------------------------------------------------------|
---------------------------------------------------------------------------|

---------------------------------------------|
------20-----17-----15-----13-----12-----10--|
---------------------------------------------|
--17-----19------17----14------12-----10-----|
---------------------------------------------|
---------------------------------------------|


Heart        break

w Overdrive
-----------|
-----------|
-2~~~~~----|
-2~~~~~----|
-0~~~~~----|
-----------|

Then Back to Verse:

Same as 1st Verse


Outro: It Sounds good if you play it with Delay, but you also can play it without, i 
prefer playing the first part with Delay and the Second with some Overdrive Pedal and then switch

w Delay                              w Overdrive
----------------------               -15~--14~--12~-------|
-----17----15-----14--               ----------------15~--|
-14-----14----14------ 2 times then: ---------------------|   Repeat and
----------------------               ---------------------|    fade out
----------------------               ---------------------|
----------------------               ---------------------|



(17) = Repeated Notes by the Delay
17~  = Hold these Notes for a While
h    = hammer on
p    = pull off
1//2 = Slide from 1 to 2
22// = Slide off

If you have any Questions email me djjannikmc@web.de ;-)
Tap to rate this tab
 
# A B C D E F G H I J K L M N O P Q R S T U V W X Y Z