Song name
# A B C D E F G H I J K L M N O P Q R S T U V W X Y Z

John Mayer - Whiskey Whiskey Whiskey tab

----------------------------------------
 Whiskey, Whiskey, Whiskey - John Mayer
----------------------------------------
Tabbed by: Thomas Favale
Email: thomasfavale@yahoo.com

Tuning: Standard

I tabbed this out using a combination of John's performances. 
Since it's still a relatively new song, he plays with a lot of 
variation, and I did my best to try and consolidate all of the 
differences into a contiguous, smooth piece of music. Hope you 
enjoy it, and feel free to email me with any questions! 

Intro:
e|---0-------0-------0-------|
B|---7-------0-------0-------|
G|---0-------5-------0-------|
D|---7-------5-------2---(2x)|
A|---5-------x-------2-------|
E|---x-------5-------0-------|

Verse:
e|--(3)------0h2-----|
B|---3-------3-------|
G|---4-------2-------|
D|---5-------0---(2x)|
A|---x-------x-------|
E|---3-------2-------|

Pre-Chorus:
e|--(3)------0------(3)-----(3)--|
B|---3-------3-------3-------3---|
G|---4-------0-------0-------0---|
D|---5-------2-------0-------2---|
A|---x-------2-------x-------3---|
E|---3-------0-------3-------x---|

Chorus:
e|---0-------0-------0h2-----|
B|---7-------0-------0-------|
G|---0-------5-------0-------|
D|---7-------5-------2---(2x)|
A|---5-------x-------2-------|
E|---x-------5-------0-------|

Post-Chorus:
e|---0------(5)-----(5)-------------0-------0-------0---|
B|---0-------5-------5--------------7-------0-------0---|
G|---0-------7-------6--------------0-------5-------0---|
D|---2-------7-------7---(2x)-------7-------5-------2---|
A|---2-------x-------x--------------5-------x-------2---|
E|---0-------5-------5--------------x-------5-------0---|

Verse:
e|--(3)------0h2-----|
B|---3-------3-------|
G|---4-------2-------|
D|---5-------0---(2x)|
A|---x-------x-------|
E|---3-------2-------|

Pre-Chorus:
e|--(3)------0------(3)-----(3)--|
B|---3-------3-------3-------3---|
G|---4-------0-------0-------0---|
D|---5-------2-------0-------2---|
A|---x-------2-------x-------3---|
E|---3-------0-------3-------x---|

Chorus:
e|---0-------0-------0h2-----|
B|---7-------0-------0-------|
G|---0-------5-------0-------|
D|---7-------5-------2---(2x)|
A|---5-------x-------2-------|
E|---x-------5-------0-------|

Post-Chorus:
e|---0------(5)-----(5)------|
B|---0-------5-------5-------|
G|---0-------7-------6-------|
D|---2-------7-------7---(2x)|
A|---2-------x-------x-------|
E|---0-------5-------5-------|

Bridge:
e|--x-------x-------x------(3)-----(3)------x-------x------(3)------2-------|
B|--1-------0-------x-------3-------3-------x-------x-------3-------3-------|
G|--2-------2-------x-------0-------0-------x-------x-------0-------0-------|
D|--2-------2-------x-------0-------0-------x-------x-------2-------x---(3x)|
A|--0-------0-------x-------x-------x-------x-------2-------3-------3-------|
E|--x-------x-------x-------3-------2-------x-------x-------x-------x-------|

e|---x-------x-------x------(3)-----(3)------x-------0------(0)--|
B|---1-------0-------x-------3-------3-------x-------0-------1---|
G|---2-------2-------x-------0-------0-------x-------0-------2---|
D|---2-------2-------x-------0-------0-------x-------2-------2---|
A|---0-------0-------x-------x-------x-------x-------2-------0---|
E|---x-------x-------x-------3-------2-------x-------0-------x---|

Chorus:
e|---0-------0-------0h2-----|
B|---7-------0-------0-------|
G|---0-------5-------0-------|
D|---7-------5-------2---(5x)|
A|---5-------x-------2-------|
E|---x-------5-------0-------|

Final Chord (major ending):         Final Chord (minor ending):
e|---0h2---|                        e|---0--------0---|
B|---2-----|                        B|---0--------0---|
G|---3-----|                        G|---0--------0---|
D|---0-----|                        D|---2---OR---4---|
A|---x-----|                        A|---2--------2---|
E|---2-----|                        E|---0--------0---|


************************************

| /   slide up
| \   slide down
| h   hammer-on
| p   pull-off
| ~   vibrato
| +   harmonic
| x   Mute note
| b   Bend
| pb  Pre-bend
| br  Bend release
| pbr Pre-bend release
| brb Bend release bend

************************************
Tap to rate this tab
 
# A B C D E F G H I J K L M N O P Q R S T U V W X Y Z