Song name
# A B C D E F G H I J K L M N O P Q R S T U V W X Y Z

John Mayer - Age Of Worry tab

Hello Ultimate-Guitar! New John Mayer song that I found on the net last night, so 
this tab might be a little rusty but i'm pretty sure I got it completely right, 
and it sounds fine to me :D

Note: The bass notes are playing progressive quavers/quarter notes.

E|-----------------------------------------------|
B|-------5----3----------------0-----------------|
G|-4----------------4----2-----------0-----2-----|
D|------------0---0---0--------------------------|
A|-----------------------3---3---3---3---3---3---|
E|-3---3---3-------------------------------------|

E|-----------------------------------------------|
B|-----------------------------------------------|
G|-------0-----0-----4-----4-----------2---------|
D|-2-----------------------------------0---0---0-|
A|-3---3---3---3---3---3-------------------------|
E|-------------------------3---3---3-------------|

E|-----------------------------------------------|
B|-------5----3----------------0-----------------|
G|-4----------------4----2-----------0-----2-----|
D|------------0---0---0--------------------------|
A|-----------------------3---3---3---3---3---3---|
E|-3---3---3-------------------------------------|

E|-----------------------------------------------|
B|-----------------------------------------------|
G|-----5---4---2-------0---0-----------0---------|
D|-2-----------0---0---0---------0---------------|
A|-3---3---3-------------------------------------|
E|-------------------------3---3---3---3---------|

               B|-----------------
This bit here: G|-----5---4---2--- is a bit of a stretch, but if you like you 
               D|-2-----------0--- can play it like this shown below
               A|-3---3---3-------

               B|-----1---0------- 
               G|-------------2--- both the same thing, but the version at 
               D|-2-----------0--- the top sounds a lot warmer than this one
               A|-3---3---3------- on the left

And that's the whole song, hope it's ok for you guys! Rate and comment please!

Peace
Tap to rate this tab
# A B C D E F G H I J K L M N O P Q R S T U V W X Y Z