John Mayer - Not Myself chords

Highlighted       Show chord diagrams
NOT MYSELF - John Mayer


Capo 1 (chords/tab relative to capo)

   Gsus4  Gmaj7  Fadd9  Cadd9   Gm11  Dadd4  Csus2  Gadd9  Eadd9  Aadd9
e|---3------2-----(8)----(8)----(8)-----5------0------x------x------x----|
B|---3------3------8------8------8------3------3------8------5------10---|
G|---0------0------0------0------0------0------0------7------4------9----|
D|---0------0------7------0------7------4------2------7------4------9----|
A|--(3)----(2)-----8------7------8------5------3------x------x------x----|
E|---3------2------x------8------6------x------x------7------4------9----|


These chords are taken from John's performance at Tower Records in Atlanta, GA, 
back in 2001.  (this is the video- http://www.youtube.com/watch?v=px--mjSlrh8)

The notes in brackets in the chords can be played or muted, it depends what sound you like.


Gsus4  Gmaj7  Fadd9  Cadd9  

Gsus4     Gmaj7
Suppose I said
Fadd9      Cadd9
I am on my best behaviour
Gsus4     Gmaj7
There are times
Fadd9             Gm11
I lose my worried mind 


Gsus4                          Dadd4   Csus2
Would you want me when I'm not myself?
Gsus4                          Dadd4   Csus2
Wait it out while I am someone else? 


Gsus4     Gmaj7
Suppose I said
Fadd9             Cadd9
Colors change for no good reason
Gsus4      Gmaj7
Words will go
Fadd9          Gm11
From poetry to prose 


Gsus4                          Dadd4   Csus2
Would you want me when I'm not myself?
Gsus4                          Dadd4   Csus2
Wait it out while I am someone else?


And I... 
e|--------------------------------------------x------x---x---x---x-----|
B|--------------15---------------10h12--10----9---9--9---9---9---9-----|
G|----------12---------------10---------------10-----10--10--10--10----|
D|------14---------------12-------------------0------0---0---0---0-----|
A|--------------------------------------------x------x---x---x---x-----|
E|--12---------------10-----------------------9------9---9---9---9-----|

In  time... 
e|--------------------------------------------x------x---x---x---x-----|
B|--------------15---------------10h12--10----9---9--9---9---9---9-----|
G|----------12---------------10---------------10-----10--10--10--10----|
D|------14---------------12-------------------0------0---0---0---0-----|
A|--------------------------------------------x------x---x---x---x-----|
E|--12---------------10-----------------------9------9---9---9---9-----|

Will come around...
e|--------------------------------------------x------x---x---x---x-----|
B|--------------15---------------10h12--10----9---9--9---9---9---9-----|
G|----------12---------------10---------------10-----10--10--10--10----|
D|------14---------------12-------------------0------0---0---0---0-----|
A|--------------------------------------------x------x---x---x---x-----|
E|--12---------------10-----------------------9------9---9---9---9-----|


Gadd9 Eadd9  Aadd9  
I     always do...    
    Csus2
For you 


Gsus4  Gmaj7  Fadd9  Cadd9  (x2)


e|----------------|
B|----------------|
G|----------------|
D|-----------3----|
A|-----3--6-------|
E|--4-------------|


Gsus4  Gmaj7  Fadd9  Cadd9  


Gsus4     Gmaj7
Suppose I said
Fadd9            Gm11
You're my saving grace?


Gsus4
My grace
Dadd4
Myself (not myself)
Csus2            Gsus4
When I'm someone else
                 Dadd4
When I'm someone else
                 Csus2
When I'm someone else
             Gsus4
When I'm not myself
Dadd4   Csus2
Myself (myself)


Gsus4  Dadd4  Csus2


Gsus4
I want to live in a wooden house
Dadd4                         Csus2
Making my own friends will be easy


Gsus4
I want to live in a wooden house
Dadd4                         Csus2
Making my own friends will be easy


Gsus4
Tap to rate this tab
 
# A B C D E F G H I J K L M N O P Q R S T U V W X Y Z