Song name
# A B C D E F G H I J K L M N O P Q R S T U V W X Y Z

John Mayer - Your Body Is A Wonderland tab

Your Body Is A Wonderland - John Mayer


This is my first tap i think its probably right except the bridge part.
I think thats the easiest way of playing and singing the bridge. Hope you like it.


capo 3rd fret


Intro:
|--------------------------------------------------------|
|-----3---3---------3---3--------3---3---------3---3-----|
|-----2---2---------2---2--------2---2---------2---2-----|
|--0-----------------------------------------------------|   x2
|----------------0---------------------------0-----------|
|------------------------------3-------------------------|


Vers 1
        We    got   this       afternoon
|--------------------------------------------------------|
|-----3---3---------3---3--------3---3---------3---3-----|
|-----2---2---------2---2--------2---2---------2---2-----|
|--0-----------------------------------------------------|
|----------------0---------------------------0-----------|
|------------------------------3-------------------------|


        We    got    this     room for two
|--------------------------------------------------------|
|-----3---3---------3---3--------3---3---------3---3-----|
|-----2---2---------2---2--------2---2---------2---2-----|
|--0-----------------------------------------------------|
|----------------0---------------------------0-----------|
|------------------------------3-------------------------|


      One  thing    I've   left   to   do              Dis-
|--------------------------------------------------------|
|-----3---3---------3---3--------3---3---------3---3-----|
|-----2---2---------2---2--------2---2---------2---2-----|
|--0-----------------------------------------------------|
|----------------0---------------------------0-----------|
|------------------------------3-------------------------|


   cover  discovering        you~~
|--------------------------------------------------------|
|-----3---3---------3---3--------3---3---------3---3-----|
|-----2---2---------2---2--------2---2---------2---2-----|
|--0-----------------------------------------------------|
|----------------0---------------------------0-----------|
|------------------------------3-------------------------|


     One  mile      to      every        inch of
|--------------------------------------------------------|
|-----3---3---------3---3--------3---3---------3---3-----|
|-----2---2---------2---2--------2---2---------2---2-----|
|--0-----------------------------------------------------|
|----------------0---------------------------0-----------|
|------------------------------3-------------------------|


      Your skin      like       porcelain
|--------------------------------------------------------|
|-----3---3---------3---3--------3---3---------3---3-----|
|-----2---2---------2---2--------2---2---------2---2-----|
|--0-----------------------------------------------------|
|----------------0---------------------------0-----------|
|------------------------------3-------------------------|


      One   pair   of       candy          lips and your
|--------------------------------------------------------|
|-----3---3---------3---3--------3---3---------3---3-----|
|-----2---2---------2---2--------2---2---------2---2-----|
|--0-----------------------------------------------------|
|----------------0---------------------------0-----------|
|------------------------------3-------------------------|

                            Pre-Chorus
  bubblegum tongue                             And if you
|--------------------------------------------------------|
|-----3---3---------3---3--------3---3---------3---3-----|
|-----2---2---------2---2--------2---2---------2---2-----|
|--0-----------------------------------------------------|
|----------------0---------------------------0-----------|
|------------------------------3-------------------------|


   want love          we'll     make it       swim in a
|--------------------------------------------------------|
|-----3---3---------3---3--------3---3---------3---3-----|
|-----2---2---------2---2--------2---2---------2---2-----|
|--------------------------------------------------------|
|-------------------------------0------------0-----------|
|--3--------------3--------------------------------------|


  deep sea           of        blankets      and take all your
|--------------------------------------------------------|
|-----3---3---------3---3--------3---3---------3---3-----|
|-----2---2---------2---2--------2---2---------2---2-----|
|--------------------------------------------------------|
|-------------------------------0------------0-----------|
|--3--------------3--------------------------------------|


  big plans         and         break  'em      this is
|--------------------------------------------------------|
|-----3---3---------3---3--------3---3---------3---3-----|
|-----2---2---------2---2--------2---2---------2---2-----|
|--------------------------------------------------------|
|-------------------------------0------------0-----------|
|--3--------------3--------------------------------------|

                           Chorus:
   bound to       be while         Your
|-----------------------------------------|
|-----3---3---------3---3--------3---3----|
|-----0---0---------2---2--------0---0----|
|-----------------------------------------|
|--2--------------------------------------|
|-----------------2------------3----------|


   Body is a  wonderland                         Your
|--------------------------------------------------------|
|-----3---3---------3---3--------3---3---------3---3-----|
|-----2---2---------2---2--------2---2---------2---2-----|
|-----------------0--------------------------------------|
|---0---------------------------0------------------------|
|--------------------------------------------3-----------|


   Body is a   wonder (I  loos  my        hands)  Your
|--------------------------------------------------------|
|-----3---3---------3---3--------3---3---------3---3-----|
|-----2---2---------2---2--------2---2---------2---2-----|
|-----------------0--------------------------------------|
|---0---------------------------0------------------------|
|--------------------------------------------3-----------|



   Body is a  wonderland
|----------------------------------------------------------------------|
|-----3---3---------3---3--------3---3---------3---3---------3---3-----|
|-----2---2---------2---2--------2---2---------2---2---------2---2-----|
|-----------------0----------------------------------------------------|
|---0---------------------------0--------------------------0-----------|
|--------------------------------------------3-------------------------|


Vers 2
     Something 'bout the way the hair falls in your face
|--------------------------------------------------------|
|-----3---3---------3---3--------3---3---------3---3-----|
|-----2---2---------2---2--------2---2---------2---2-----|
|--0-----------------------------------------------------|
|----------------0---------------------------0-----------|
|------------------------------3-------------------------|


  I love the shape u take when crawling towards the pillow-case
|--------------------------------------------------------|
|-----3---3---------3---3--------3---3---------3---3-----|
|-----2---2---------2---2--------2---2---------2---2-----|
|--0-----------------------------------------------------|
|----------------0---------------------------0-----------|
|------------------------------3-------------------------|


 You tell me where to go and though I might leave to find it
|--------------------------------------------------------|
|-----3---3---------3---3--------3---3---------3---3-----|
|-----2---2---------2---2--------2---2---------2---2-----|
|--0-----------------------------------------------------|
|----------------0---------------------------0-----------|
|------------------------------3-------------------------|


Ill never let ur head hit the bed without my hand behind it and i u
|--------------------------------------------------------|
|-----3---3---------3---3--------3---3---------3---3-----|
|-----2---2---------2---2--------2---2---------2---2-----|
|--0-----------------------------------------------------|
|----------------0---------------------------0-----------|
|------------------------------3-------------------------|


   want love          we'll     make it       swim in a
|--------------------------------------------------------|
|-----3---3---------3---3--------3---3---------3---3-----|
|-----2---2---------2---2--------2---2---------2---2-----|
|--------------------------------------------------------|
|-------------------------------0------------0-----------|
|--3--------------3--------------------------------------|


  deep sea           of        blankets      and take all your
|--------------------------------------------------------|
|-----3---3---------3---3--------3---3---------3---3-----|
|-----2---2---------2---2--------2---2---------2---2-----|
|--------------------------------------------------------|
|-------------------------------0------------0-----------|
|--3--------------3--------------------------------------|


  big plans         and         break  'em      this is
|--------------------------------------------------------|
|-----3---3---------3---3--------3---3---------3---3-----|
|-----2---2---------2---2--------2---2---------2---2-----|
|--------------------------------------------------------|
|-------------------------------0------------0-----------|
|--3--------------3--------------------------------------|

                           Chorus:
   bound to       be while         Your
|-----------------------------------------|
|-----3---3---------3---3--------3---3----|
|-----0---0---------2---2--------0---0----|
|-----------------------------------------|
|--2--------------------------------------|
|-----------------2------------3----------|


   Body is a  wonderland                         Your
|--------------------------------------------------------|
|-----3---3---------3---3--------3---3---------3---3-----|
|-----2---2---------2---2--------2---2---------2---2-----|
|-----------------0--------------------------------------|
|---0---------------------------0------------------------|
|--------------------------------------------3-----------|


   Body is a   wonder (I  loos  my        hands)  Your
|--------------------------------------------------------|
|-----3---3---------3---3--------3---3---------3---3-----|
|-----2---2---------2---2--------2---2---------2---2-----|
|-----------------0--------------------------------------|
|---0---------------------------0------------------------|
|--------------------------------------------3-----------|



   Body is a  wonderland
|----------------------------------------------------------------------|
|-----3---3---------3---3--------3---3---------3---3---------3---3-----|
|-----2---2---------2---2--------2---2---------2---2---------2---2-----|
|-----------------0----------------------------------------------------|
|---0---------------------------0--------------------------0-----------|
|--------------------------------------------3-------------------------|

Bridge

       Damn     Baby
|--------------------------------0-------------0---------|
|-----3---3---------3---3----------3-------------3-------|
|-----2---2---------2---2------------2-------------2-----|
|------------------------------0-------------0-----------|
|---0-------------0--------------------------------------|
|--------------------------------------------------------|


      You  frustrate  me                       Baby your
|--------------------------------0-------------0---------|
|-----3---3---------3---3----------3-------------3-------|
|-----2---2---------2---2------------2-------------2-----|
|------------------------------0-------------0-----------|
|---0-------------0--------------------------------------|
|--------------------------------------------------------|


   mine all      mine all     mine              But you
|--------------------------------------------------------|
|-----3---3---------3---3--------3---3---------3---3-----|
|-----2---2---------2---2--------2---2---------2---2-----|
|--0-----------------------------------------------------|
|----------------0---------------------------0-----------|
|------------------------------3-------------------------|


look so good  it hurts sometimes
|--------------------------------0-------------0---------|
|-----3---3---------3---3----------3-------------3-------|
|-----2---2---------2---2------------2-------------2-----|
|------------------------------0-------------0-----------|
|-----------------0--------------------------------------|
|---3----------------------------------------------------|


                                                 Your |--|
|-----3---3---------3---3--------3---3---------3---3-----|
|-----2---2---------2---2--------2---2---------2---2-----|
|--------------------------------------------------------|
|--------------------------------------------------------|
|--3--------------3------------3-------------3-----------|



   Body is a  wonderland                         Your
|--------------------------------------------------------|
|-----3---3---------3---3--------3---3---------3---3-----|
|-----2---2---------2---2--------2---2---------2---2-----|
|-----------------0--------------------------------------|
|---0---------------------------0------------------------|
|--------------------------------------------3-----------|


   Body is a   wonder (I  loos  my        hands)  Your
|--------------------------------------------------------|
|-----3---3---------3---3--------3---3---------3---3-----|
|-----2---2---------2---2--------2---2---------2---2-----|
|-----------------0--------------------------------------|
|---0---------------------------0------------------------|
|--------------------------------------------3-----------|



   Body is a  wonderland
|----------------------------------------------------------------------|
|-----3---3---------3---3--------3---3---------3---3---------3---3-----|
|-----2---2---------2---2--------2---2---------2---2---------2---2-----|
|-----------------0----------------------------------------------------|
|---0---------------------------0--------------------------0-----------|
|--------------------------------------------3-------------------------|


 dadadaaaa da da...
|--------------------------------------------------------|
|-----3---3---------3---3--------3---3---------3---3-----|
|-----2---2---------2---2--------2---2---------2---2-----|
|--0-----------------------------------------------------|  x2
|----------------0---------------------------0-----------|
|------------------------------3-------------------------|


dadadaaaa da da...
|--------------------------------------------------------|
|-----3---3---------3---3--------3---3---------3---------|
|-----2---2---------2---2--------2---2---------2---------|
|--0-----------------------------------------------------|
|----------------0-----------------------------0---------|
|------------------------------3-------------------------|





L.P.
Tap to rate this tab
# A B C D E F G H I J K L M N O P Q R S T U V W X Y Z