Song name
# A B C D E F G H I J K L M N O P Q R S T U V W X Y Z

John Mayer - Your Body Is A Wonderland tab

Hey man! ..:D

x-palm mute

this is not realy the full song...i don't know the solo yet (working on it) but im realy
excited to make my first tab so i made this one with no solo and im still 12 years old
boy so don't be to harsh! :D haha lol..and its still my first year of playing guitar so 
im practicing on my listening thingy2x(which will take a while cause i learned guitar by
myself/ self thought maybe)! :DD :D sooooo hope you like it..XD





"We got the afternoon
You got this room for two
One thing I've left to do
Discover me, discoverin' you, oh"
verse/intro
|---1---x---1-------1---x---1-------1--x--1------|
|---1---x---1-------1---x---1-------1--x--1------|
|------------------------------------------------|
|-3-----x----------------------------------------|
|-----------------3-----x--------1-----x---------|
|------------------------------------------------|


|---1---x--1-----------------------------------------|
|---1---x--1---then repeat it till you finish verse--|
|----------------------------------------------------|
|----------------------------------------------------|
|-3-----x--------------------------------------------|
|----------------------------------------------------|

and the "And if you want love
Swim in a deep sea
(Of blankets)
Take all your big plans
(And break 'em)" part


|---1--x--1-----1--x--1----1-x--1----1---x--------|
|---1--x--1-----1--x--1----1-x--1----1---x--------|
|-------------------------------------------------|
|-------------------------------------------------|
|-1----x------1----x-----3---x----3------x--------|
|-------------------------------------------------|

---then the "This is bound to be a while" part

|---------------------------1--x--1-------1--x--1|
|----3-x--3------5--x--5----1--x--1-------1--x--1|
|----3-x--3------5--x--5-------------------------|
|------------------------------------------------|
|-------------------------1----x-------3-----x---|
|-3----x-------5----x----------------------------|

then you play verse/chorus again :D lol just send me a message if there some problem so
i could improve it ...raagas_joshua@yahoo.com
Tap to rate this tab
 
# A B C D E F G H I J K L M N O P Q R S T U V W X Y Z