Song name
# A B C D E F G H I J K L M N O P Q R S T U V W X Y Z

John Mayer - Kid A tab

Help us improve GuitareTab! Take a short survey!
Kid A (John Mayer's version, Radiohead cover) 
transcribed by Catherine Gagn (www3.sympatico.ca/g403z)

Part 1 

e-------------------------------------------------------------------- 
b-------------------------------------------------------------------- 
g-------------------------------------------------------------------- 
d---3-3-3--5-5--x-x-x-----7----7----7----7----7-----5----5----5----5- 
a---x-x-x--x-x--5-5-5---x-x--x-x--x-x--x-x--x-x---x-x--x-x--x-x--x-x- 
e---5-5-5--6-6--6-6-6---8-8--8-8--8-8--8-8--8-8---6-6--6-6--6-6--6-6- 
                          1    2    3    4    5     1    2    3    4 

e------------ 
b------------ 
g------------ 
d-----5----5- 
a---x-x--x-x- 
e---6-6--6-6- 
      5    6 

The pattern changes a lot. It's not always (8xxxxx)-(8x7xxx), etc.. 
The important thing is to count to 5 while stumming this chord (8x7xxx), 
and to 6 during the other one. 

Part 2 

e------------------------------------------- 
b------------------------------------------- 
g------------------------------------------- 
d---5-5-5--3-3-(0)---(0)---(0)---(0)---(0)-- 
a---x-x-x--x-x--3-----3-----3-----3-----3--- 
e---6-6-6--5-5--1--1--1--1--1--1--1--1--1--- 
                1     2     3     4     5 

(1) 
I slipped away 
I slipped on a little white lie 

(2) 
We got heads on sticks 
You got ventriloquists 
We got heads on sticks 
You got ventriloquists 

Standing in the shadows at the end of my bed (x4) 

(1) Rats and children follow me out of town 
Rats and children follow me out of town 
Come on kids...
Related for Kid A tab