Song name
# A B C D E F G H I J K L M N O P Q R S T U V W X Y Z

John Mayer - Why Georgia tab

Song: Why Georgia
Tabbed by: Josiah Krol


Hey guys, this is my first tab, but I think most of it is right. I decided to write this
under the impression that you want to play the song with only one guitar instead of the
four that the others were suggesting you should play it with. I never had four people 
who played guitar and four guitars in the same place when I was learning to play so I
figured you wouldn't either. This is the "acoustic" version I suppose you could call it. 
Anyway, these are my tweaks.

*Note* If you are thinking of performing this I suggest putting a capo on the
       second fret because it is MUCH easier to sing.

Tuning: Standard - EADGBe



Tab Key: h - Hammer on
         x - Slap
         / - Slide Up
         \ - Slide Down
         t - tap

                        Intro

                        e------------x------------------x------------|
                        B-------0----x---0--------------x------------|
                        G-------0h2--x---0-----------0--x-------0----|
              4x        D------------x-----------4------x-----4------|
                        A------------x------0----5------x---5--------|
                        E----3-------x------------------x------------|


                        Verse

                               "I         am      dri-ving on..."
                        e------------x------------------x------------|
                        B-------0----x---0--------------x------------|
                        G-------0h2--x---0-----------0--x-------0----|
              4x        D------------x-----------4------x-----4------|
                        A------------x------0----5------x---5--------|
                        E----3-------x------------------x------------|

"Lasts all afternoon..."

                        e------------------------x---------|
                        B------3------3------3---x--3------|
                        G-------t2-0h2-t2-0h2-t2-x--0h2----|
                        D------------------------x---------|
                        A-----3------------------x--3------|
                        E------------------------x---------|

                        e------------------------x---------|
                        B------3------3------3---x--3------|
                        G-------t2-0h2-t2-0h2-t4-x--0------|
                        D------------------------x---------|
                        A-----3------------------x--3------|
                        E------------------------x---------|


   Pre-Chorus

                 Em7      D/F#          G5
           "Cuz' I_____ wonder sometimes___

                            Cadd9
           'Bout the outcome_______________

                   Em7     D/F#               Em7 Asus
            Of a still____ verdict__less life________


   Chorus
                  D5        Asus    G5
            Am I livin' it ri-ght?_____

                  D5        Asus    Em7
            Am I livin' it ri-ght?_____

                  D5        Asus    G5
            Am I livin' it ri-ght?_____

             Em7     D/F#
            Why?___ Why?___ Georgia Why?  [Back to Verse]


    Bridge

        F     Cadd9    G
           So what so I've got a smi-le on___

        F      Cadd9        G
           It's hiding the quiet superstitions in my head

        G         Cadd9      D/F#
           Don't believe me______

        G         Cadd9      D/F#
           Don't believe me_______

                  Em7    D/F# Cadd9 D   G
           When I say___ I've go-t it down______  [Back to Verse guitar part]


    Pre-chorus for 3rd Chorus


                 Em7            D/F#            G
           Still every____thing happens for a reason

                  D/F#
           Is no rea-son not to ask my-self if I am  [Back to Chorus]




           This is a watered down version of the song but I hope it helped
           anyway because it took FOREVER to type out. Enjoy!
Tap to rate this tab
 
# A B C D E F G H I J K L M N O P Q R S T U V W X Y Z