Song name
# A B C D E F G H I J K L M N O P Q R S T U V W X Y Z

John Mayer - No Such Thing tab

Here the solo John does at the "Any given thursday" CD/DVD:

-----------------------------------------------------------------|
-----------------------------------------------------------------|
-9-9-9--9-9-8-8-8--8-8-6-6-6--6-6-4-4-4--4-4-9-9-8-9-11-9-8-9/11-|    then
-----------------------------------------------------------------|
-----------------------------------------------------------------|
-----------------------------------------------------------------|


-----X--------------------------------------------------------------------------|
-----0--------------------------------------------------------------------------|
-----13h14p13---15-15-X--13-13-X--11-11-X--9-9-X--8-8-X--6-6-X--4-4--X--2-2-X---|
-----X----------15-15-X--13-13-X--11-11-X--9-9-X--8-8-X--6-6-X--4-4--X--2-2-X---|
-----14---------13-13-X--11-11-X---9--9-X--7-7-X--6-6-X--4-4-X--2-2-X--0-0-X----|
-----0--------------------------------------------------------------------------|


back to the normal chorus with

e--0         e--X
B--0         B--7-|
G--5   and   G--8-|
D--5         D--6-|
A--0         A--7-|
E--X         E--0
Tap to rate this tab
# A B C D E F G H I J K L M N O P Q R S T U V W X Y Z