Guitaretab - guitar tabs
Song name
# A B C D E F G H I J K L M N O P Q R S T U V W X Y Z

John Mayer - Queen Of California tab

This is the intro to the studio version snippet available to hear on iTunes c;
The song is amazing and I can't wait for a full studio version on Born and Raised!

Tabbed by Bob Barlag!
any questions? Send an email to bobbarlag@hotmail.com


Capo on 4th;

Intro:
e|--------------------------------------|
B|-----0h1-----1-----------1------------|
G|-----0-------0---0-----0-----0---0----|
D|-----0h2-----2h0---2h3-----2---0------|
A|--------------------------------------|
E|--3------x----------------------------|

The chords to the other parts of the song are, relative to the capo;
[ Tab from: http://www.guitaretab.com/j/john-mayer/312099.html ]
C (x32010) (sounds like E), Am7 (x02010) (sounds like C#m7)
&
D (2x0232) (sounds like G)

    C                        
"Im heading out west with my headphones on,"
"Looking for the song that Neil Young hung,"

 Am7
"boarding a flight with a song in the back of my soul."
"after the goldrush of 1971."

   D
"I just found out her ghost left town,"
     C                                   (Lick #1)
"the Queen of California is a steppin' down, down."


Lick #1:

e|-1-0-------------|------------------------|
B|-----3-1-0-------|----0h1-----------------|
G|-----------2-0---|-0--0-------------------|
D|---------------2-|----0h2----(INTRO)------|
A|-----------------|------------------------|
E|-----------------|-3----------------------|
Related for Queen Of California tab
×
Best way to learn
"Queen Of California"