Song name
# A B C D E F G H I J K L M N O P Q R S T U V W X Y Z

John Mayer - No Such Thing tab

no such thing - john mayer
tabbed by: ramen cascante

go figure the strumming yourself cause its 2 in the 
morning and my eyes are drowsy.

intro
|----------------|
|----------------|
|----------------|
|-13--14--13--14-|
|-11--11--11--11-|
|--0---0---0---0-|

verse
|-------------------------------------|
|-----------------------------------2-|
|-----13--9--14--11--12------13--9--3-|
|-13--11--9--12--12--12--13--11--9--2-|
|-11---0-----10--10--10--11---0-----0-|
|--0------9---------------0------9--0-|

|---------------------------------|
|---------------------------------|
|-4--6--8--13------4--6--8--13----|
|-2--4--6--11--13--2--4--6--11--13|
|-0--0--0---0--11--0--0--0---0--11|
|-0--0--0---0---0--0--0--0---0---0|
 -----2x-----      -----2x----

chorus
|-----------|
|-----------|
|-5--10-----|
|-5--10--13-|   4x
|--------11-|
|-5--10---0-|

do verse
do chorus

bridge
|-1--5--1--5--1--5--1--5--1--|
|-1--5--1--5--1--5--1--5--1--|
|-2--6--2--6--2--6--2--6--2--|
|----------------------------|
|-3--7--3--7--3--7--3--7--3--|
|-1--5--1--5--1--5--1--5--1--|

|--------------------|-------------|
|------------------2-|-------------|
|-4--6--8--13------3-|-4--6--8--13-|
|-2--4--6--11--13--2-|-2--4--6--11-|
|-0--0--0---0--11--0-|-0--0--0---0-|
|-0--0--0---0---0--0-|-0--0--0---0-|
 ----2x-----

do chorus 2x

|--------|
|--------|
|-----13-|
|-13--11-|   2x
|-11---0-|
|--0-----|

Tap to rate this tab
# A B C D E F G H I J K L M N O P Q R S T U V W X Y Z