Song name
# A B C D E F G H I J K L M N O P Q R S T U V W X Y Z

John Mayer - Perfectly Lonely tab

/= slide up
\= slide down
b= bend
r= release bend
~= vibrato

Intro:
|--------13--12--10-8-5---|----------13--12--10-7-|-5h8p5---------------|
|-13/15--13--13--10-8-5h6-|---13/15--13--13--10-8-|-------8-----15b-15b-|
|-12/14-------------------|---12/14---------------|---------------------|
|-------------------------|-----------------------|---------------------|
|-------------------------|-----------------------|---------------------|
|-------------------------|-----------------------|---------------------|

|-------------------13----|-----------------------|-----20-----|
|------13-13/15--15b--15r-|-----------------------|--20b--20r--|
|-12h14-------------------|--15p14-12\10--12/14---|------------|
|-------------------------|-----------------------|------------|
|-------------------------|-----------------------|------------|
|-------------------------|-----------------------|------------|

Verse:

|C|F|Dm|G|

Chorus: 

|C|F|Dm|G|

Bridge:

|Am|Em|F|G|Am|Em|F|Fm|

Solo:

|------------------------|-----------------------|----------------|
|------------------------|-----------------------|----------------|
|------------------12h14-|--------12h14----------|----------------|
|-------10h12/14---------|12h14---------15-14-12-|-12\10----10----|
|--10h12-----------------|-----------------------|-------12----12~|
|------------------------|-----------------------|----------------|

|------------------------|------------13---------|-----13------------|
|------------------------|-13-13~--15b--15r-13---|--15b--15r-13-13---|
|---------------12h14----|---------------------14|-----------------14|
|------10h12/14----------|-----------------------|-------------------|
|-10h12------------------|-----------------------|-------------------|
|------------------------|-----------------------|-------------------|

|-15b-15-15b-15-15b-20~--|
|------------------------|
|------------------------|
|------------------------|
|------------------------|
|------------------------|
Tap to rate this tab
 
# A B C D E F G H I J K L M N O P Q R S T U V W X Y Z