Song name
# A B C D E F G H I J K L M N O P Q R S T U V W X Y Z

John Mayer - Not Myself tab

This should be 100% correct. I have played this song many times live with other talented
musicians, and all of them agree that this is correct! Good luck! And happy playing!
Please comment on what you think about this tab. If you have any corrections, message me 
on here, or on my email tannerpicton@yahoo.com
Thank you sooo much for choosing my tab!

CAPO on 1(tab is relative to capo)

Standard tuning (EADGBe)

This song has a pretty straight forward struming pattern. Listen to the song a couple of 
times, and you will have it.


Intro

e--3---3---0---0--|
b--3---3---8---8--|
g--0---0---0---0--|
d--0---0---7---x--|
a--x---x---8---7--|
e--3---2-------8--|


Verse

"Suppose I said..."
e--3---3---0---0--|
b--3---3---8---8--|
g--0---0---0---0--|
d--0---0---7---x--|
a--x---x---8---7--|
e--3---2-------8--|

"and there are times..."
e--3---3---0-------|
b--3---3---8---8---|
g--0---0---0---0---|
d--0---0---7---7---|
a--x---x---8---8---|
e--3---2-------6---|


Chorus

"Would you want me..."
e--3---3---0---3--|
b--3---3---3---3--|
g--0---0---0---0--|
d--0---0---4---0--|
a--x---3---5---3--|
e--3--------------|


Bridge

"And I in time..."
e----------------------------------|
b----------15-------10h12-10-----8-|
g-------12-------11------------9---| x 3
d----14----------------------------|
a----------------------------------|
e-12----------10-------------8-----|


Each chord strummed once except last chord
which is strummed 5 or 6 times before the
guitar solo

e----------------0--|
b---8---5---10---3--|
g---7---4----9---0--|
d---7---4----9---0--|
a---x---x----x---3--|
e---7---4----9------|


Solo
During the solo, the rhythm guitar plays the
chords for the verse, except for the last chord.
Instead of 68708x, you would play x30033.

e-----------------------------------------------|
b------------3----------------------------------|
g------0-2/4---0-------0-2/4\2\0-5-5-3/4-4-4/0--|
d--0h2-----------4---2--------------------------|
a-----------------------------------------------|
e-----------------------------------------------|

e-------------------------------------3--3-2----|
b--------------------------------------------3--|
g----0h2------------------------0-2/4----4-2-0--|
d--2-----0h2p0----0h2p0-----0h2--------------4--|
a--------------3--------0h2---------------------|
e-----------------------------------------------|

e--3--1--1--1--0----------------|
b-------------------------------|
g--4--2--2--0--0-------------0--|
d--------------------------3----|
a----------------------3-6------|
e--------------------4----------|
Tap to rate this tab
 
# A B C D E F G H I J K L M N O P Q R S T U V W X Y Z