Song name
# A B C D E F G H I J K L M N O P Q R S T U V W X Y Z

John Mayer - Queen Of California tab

-------------------------------------------------------------------------------
                        Queen of California - John Mayer
-------------------------------------------------------------------------------
Tabbed by: Tim van Kester
E-mail:

Tuning: Standard

e|-----------------------------12---------------------------------------|
B|-----12-14b16-14b16~---14b16----14b16--12~-------12-14b16-14b16~------|
G|-/13------------------------------------------13----------------------|
D|----------------------------------------------------------------------|
A|----------------------------------------------------------------------|
E|----------------------------------------------------------------------|

e|------14-12--------------------12--12\11--11\9--9\7--7\4~----|
B|-pb16-------14b16--12~------12-------------------------------|
G|-------------------------------------------------------------|
D|-------------------------------------------------------------|
A|-------------------------------------------------------------|
E|-------------------------------------------------------------|

e|---11--11\9--9\7--7------------------------------------------|
B|-9------------------9--9\2~----9\7---------------------------|
G|----------------------------------\6--4~---------4h6----4~---|
D|---------------------------------------------4h6------6------|
A|-------------------------------------------------------------|
E|-------------------------------------------------------------|

e|-------------------------------------|
B|-7--9--9b11-9b11~---r9p7---10b12~----|
G|-------------------------------------|
D|-------------------------------------|
A|-------------------------------------|
E|-------------------------------------|



************************************

| /   slide up
| \   slide down
| h   hammer-on
| p   pull-off
| ~   vibrato
| +   harmonic
| x   Mute note
| b   Bend
| pb  Pre-bend
| br  Bend release
| pbr Pre-bend release
| brb Bend release bend

************************************
Tap to rate this tab
 
# A B C D E F G H I J K L M N O P Q R S T U V W X Y Z