Song name
# A B C D E F G H I J K L M N O P Q R S T U V W X Y Z

John Mayer - Something Like Olivia tab

From the album 'Born and Raised'... If you haven't already, listen to all of it, 
because it's amazing.

Solo starts at 1m10s into the song... http://youtu.be/FXfbKdMXIPo
This tab is one guitar, but the original solo probably involved 2 guitars.

  1:10                                 1:18
e|------------------------------------|------------------------------------|
B|--10b(12)--10--8\---3---------------|---10b(12)--10--8-----8b(10)----8\--|
G|--------------------5---------------|-9----------------(9)--------9------|
D|--------------------5---7------7/9--|------------------------------------|
A|---------------------------10-------|------------------------------------|
E|------------------------------------|------------------------------------|
  1:20                                 1:27
e|-3------------3---------------------|---------10-------------------------|
B|-5p3---3-3------6p5p3---------------|-10b(12)----10b(12)-10--9b(11)-8-8--|
G|-----5---3h4----------5-3h4-3h4-----|--------------------------------9-9-|
D|------------------------------------|------------------------------------|
A|------------------------------------|------------------------------------|
E|------------------------------------|------------------------------------|
  1:32
e|-----------------------------------||
B|-9b(11)-8--------------------------||
G|-----------5b(7)r-3h5----(0)-------||
D|----------------------5---5--------||
A|-----------------------------------||
E|-----------------------------------||
Tap to rate this tab
 
# A B C D E F G H I J K L M N O P Q R S T U V W X Y Z