Song name
# A B C D E F G H I J K L M N O P Q R S T U V W X Y Z

John Mayer - I Dont Need No Doctor tab

I Don't Need No Doctor
Performed by John Mayer

Yeah so I had a go at tabbing this, I think I maybe improved some things but leave a 
comment to let me know what you think :)



Intro

e|-----------0----------------------------------------|
B|--------------3p0---------3p0------2----------------|
G|-----0h1------------0-----4p0------2p0h2p-----------|
D|----------------------------------------------------|
A|----------------------------------------------------|
E|--0---------------------3------3--------------------|

e|-----------0----------------------------------------|
B|--------------3p0---------3p0------2p0--------------|
G|-----0h1------------0-----4p0------2p0--------------|
D|----------------------------------------------------|
A|----------------------------------------------------|
E|--0---------------------3------3--------------------|

e|-----------0----------------------------------------|
B|--------------3p0---------3p0------2----------------|
G|-----0h1------------0-----4p0------2p0h2p-----------|
D|----------------------------------------------------|
A|----------------------------------------------------|
E|--0---------------------3------3--------------------|

e|-----------0---------------------------0------------|
B|--------------3p0---------3-------------------------|
G|-----0h1------------0-----4------/11b---------------|
D|---------------------------------/12b----12---------|
A|----------------------------------------------------|
E|--0---------------------3---------------------------|

Verse

e|-----------0----------------------------------------|
B|--------------3p0---------3p0------2----------------|
G|-----0h1------------0-----4p0------2p0h2p-----------|x4
D|----------------------------------------------------|
A|----------------------------------------------------|
E|--0---------------------3------3--------------------|

e|--3-----3-----3-----5-----7-------------------------|
b|--5-----5-----3-----3-----5-------------------------|
g|--4-----5-----3-----4-----6-------------------------|
d|--x-----x-----2-----5-----7-------------------------|
a|--4-----5-----3-----x-----x-------------------------|
e|--------------------5-----7-------------------------|

"I've been too long away from ma baby yeah, I'm coming down with a...
e|--7------5------3---3------5------------------------|
B|--5------3------3---3------5------------------------|
G|--6------4------5---5------5------------------------|
D|--x------x------x---x------4------------------------|
A|--x------x------x---x------5------------------------|
E|--7------5------3---3-------------------------------|

...Misery."
e|-----------0----------------------------------------|
B|--------------3p0---------3p0------2----------------|
G|-----0h1------------0-----4p0------2p0h2p-----------|
D|----------------------------------------------------|x4
A|----------------------------------------------------|
E|--0---------------------3------3--------------------|

And then another guitar plays this over the top of theses last 4:
e|-------------------------------------------------------|
B|-------------------------------------------------------|
G|-------------------------------/11---------------------|
D|-------------------------------/12-9p7h9/-4------------|
A|-------------------------------------------------------|
E|-------------------------------------------------------|


And then that's pretty much the whole song, except for the solo and some general 
improvisation, but that's just effort so just go for the good old fashion E-Minor Pentatonic. 
And there you have it.
Tap to rate this tab
 
# A B C D E F G H I J K L M N O P Q R S T U V W X Y Z