Song name
# A B C D E F G H I J K L M N O P Q R S T U V W X Y Z

John Mayer - In Your Atmosphere tab

Hey this version of the song is on where the light is. this is a sweet song to learn 
it is the sam tunning as Somethings missing.

Part 1:
e-------har12--------------------|
b-------har12--------------------|
f#----0-----------------0h9v-----|
e------0---------0---------------|
b------------------5h7-----------|
E---0----------5-----------------|

e-------har12--------------------|
b-------har12-----------0h9v-----|
f#----0----------0---------------|
e------0-------------------------|
b------------------5h7-----------|
E---0----------5-----------------|

e-------har12----------------|
b-------har12----------------|
f#-------------555-----------|
e--------------555-----------|
b--------------xxx-----------|
E---0----------555-----------|


e-------har12--------------------|
b-------har12--------------------|
f#-------------555------7h9v-----|
e--------------555---------------|
b--------------xxx-5h7-----------|
E---0----------555---------------|


with his chords he does the usual john mayer thing and leaves the a string out.

Part 2:
e---0-----0-----0----0----0-----|
b---0-----0-----0----0----0-----|
f#--10----9-----3----5----7-----|
e---9-----7-----2----5----7-----|
b---x-----x-----x----x----x-----|
E---9-----7-----2----5----7-----|

Part 3:
e-------har12-----5-5-5--4-4-4-----------5-5-5--4-4---------|
b-------har12-----7-7-7--5-5-5-----------7-7-7--5-5---------|
f#----0--------------------------5---5----------------5-----|
e------0-------------------------7---5----------------5h7---|
b--------------------------------x---x----------------x-----|
E---0----------5----0------------5---5--5------5------5-----|

Part 4:
e---0-----0-----0----|
b---0-----0-----0----|
f#--2----10-----7----|
e---3-----9-----9----|
b---x-----x-----x----|
E---2-----9-----7----|X3

e---0-----0-----0----0----0----0----0----0----|
b---0-----0-----0----0----0----0----0----0----|
f#--5----10-----7----5----7----5----7----9----|
e---4-----9-----9----4----5----4----5----7----|
b---x-----x-----x----x----x----x----x----x----|
E---4-----9-----7----4----5----4----5----7----|

Part 5:
e---------------------------------------------------------------------|
b---5--7--9---12--10---5----------5--7--9---12--10---5--4h5--4--4h5-5-|
f#--0--0--0----0---0---0----------0--0--0----0---0---0----0--0----0-0-|
e---0--0--0----0---0---0----------0--0--0---10---9---0----0--0----0-0-|
b---x--x--x----x---x---x----------x--x--x----x---x--------x--x----x-x-|
E-------------10---9---5--------------------10---9---5----5--5----5-5-|

Part 6:
e-------------|
b-------------|
f#----5----7--|
e-----4----5--|
b-----x----x--|
E-----4----5--|X17

Part 7:
e-------------------|
b-------------------|
f#----5----5----5-5-|
e-----2----2----2-2-|
b-----0----0----4-5-|
E----------4--------|

Part 1
Part 2
Part 3
Part 1
Part 2
Part 1
Part 4
Part 1
Part 5
Part 1
Part 6
Part 7                     Enjoy :D:D:D:D:D
Tap to rate this tab
 
# A B C D E F G H I J K L M N O P Q R S T U V W X Y Z