Song name
# A B C D E F G H I J K L M N O P Q R S T U V W X Y Z

John Mayer - Heartbreak Warfare Acoustic tab

-----------------------------------------------------------------------------
                             HEARTBREAK WARFARE - John Mayer
-----------------------------------------------------------------------------
Tabbed by:GuItArFrEeK333

Tuning:Standard

Ok, so no tabs here have the bridge section from his acoustic versions quite correct
http://www.youtube.com/watch?v=5g_rthquKdw
http//www.youtube.comwatch?v=FZ5sSIiOSQM
I am confident this complete tab is just about 100% (the ending could have some small 
things). You can figure out the order of parts and strumming.

Chords

A         x02220
Aadd9     x02420 or Asus2   x02200
Dmaj7/F#  2x0220
D/F#      2x023x
F#m       24422x or F#m     2x422x

***the alternate notes to the right can replace the ones to the left***



Intro/Verse 1/Chorus

"Lightning strikes inside..."
"Clouds of sulfur in the air..."

e|--0--0--0--0----0--x--0--0--|
B|--2--2--2--2----2--3--2--3--|
G|--2--4--2--4----2--2--2--2--|
D|--2--2--2--2----0--0--0--0--|
A|--0--0--0--0----x--x--x--x--|
E|--x--x--x--x----2--2--2--2--|



"If you want more love..."

e|--x--x--0--x--|
B|--2--2--2--3--|
G|--2--4--2--2--|
D|--4--2--0--0--| (x2)
A|--4--x--x--x--|
E|--2--x--2--2--|



Verse 2

(you can play the Verse 1 progression above or sub the notes in the same spot, but he 
plays it this way too, sometimes with hammer-ons from the 4 to 6 and 9 to 11 changes)

"Drop his name..."

e|--x--x--x--x----x---x---x---x---|
B|--5--5--5--5----10--10--10--10--|
G|--6--4--6--4----11--9---11--9---|
D|--7--7--7--7----12--12--12--12--|
A|--0--0--0--0----x---x---x---x---|
E|--x--x--x--x----x---x---x---x---|



Pre-bridge

"Just say so..."

e|--0--x--x--|
B|--x--x--0--|
G|--8--9--4--|
D|--7--9--2--|
A|--9--7--x--|
E|--x--8--3--|



Bridge

 "How come the only way to know how high you get me, is to

e|-x---x---x---x---x---x---x---x--x--x--x--x--x--x--x--x--x--|
B|-x---x---x---x---x---x---x---x--x--x--x--x--x--x--x--x--x--|
G|-10--10--10--10--10--10--10--9--9--9--9--9--7--7--7--7--7--|
D|-7---7---7---7---7---7---7---7--7--7--7--7--7--7--7--7--7--|
A|-8---8---8---8---8---8---8---8--8--8--8--8--8--8--8--8--8--|
E|-x---x---x---x---x---x---x---x--x--x--x--x--x--x--x--x--x--|

see how far I fall?"

x---x---x---x---x---x---x-|
x---x---x---x---x---x---x-|
12--12--12--12--12--10--9-|
9---9---9---9---9---9---9-|
10--10--10--10--10--10--10|
x---x---x---x---x---x---x-|

 "God only knows how much I'd love you if you let me, but I

e|-x---x---x---x---x---x---x---x--x--x--x--x--x--x--x--x--x--|
B|-x---x---x---x---x---x---x---x--x--x--x--x--x--x--x--x--x--|
G|-10--10--10--10--10--10--10--9--9--9--9--9--7--7--7--7--7--|
D|-7---7---7---7---7---7---7---7--7--7--7--7--7--7--7--7--7--|
A|-8---8---8---8---8---8---8---8--8--8--8--8--8--8--8--8--8--|
E|-x---x---x---x---x---x---x---x--x--x--x--x--x--x--x--x--x--|

can't break through it all."

x---x---x---x---x---x---x-|
x---x---x---x---x---x---x-|
12--12--12--12--12--10--9-|
9---9---9---9---9---9---9-|
10--10--10--10--10--10--10|
x---x---x---x---x---x---x-|



"It's a heart, heartbreak"

e|--0--|
B|--2--|
G|--4--|
D|--2--|
A|--0--|
E|--x--|



Breakdown before ending

e|--------------------------------|
B|--------------------------------|
G|--------------------------------|
D|--12--11------------------------|
A|----------12--10----------------|
E|------------------12--10--9--5--|



End (Can be played exactly like Verse 2 to the end)



(Other Ending)

"I don't care if we don't sleep at all tonight..." until "Disappointment has a name, 
it's heartbreak, heartbreak."

e|--x--x--x--x--0--x--0--x--|
B|--5--5--5--5--2--3--2--3--|
G|--6--7--6--6--2--2--2--2--|
D|--7--7--7--7--0--0--0--0--|
A|--0--0--0--0--x--x--x--x--|
E|--x--x--x--x--2--2--2--2--|

Alternate ending after "Disappointment has a name, it's heartbreak, heartbreak."

e|--0----0--0----0--0----0--0----0----x---x---x---x---|
B|--0h2--2--2p0--0--0h2--2--2p0--0----10--10--10--10--|
G|--2----2--2----2--2----2--2----2----11--9---11--9---|
D|--2----2--2----2--2----2--2----2----12--12--12--12--|
A|--0----0--0----0--0----0--0----0----x---x---x---x---|
E|--x----x--x----x--x----x--x----x----x---x---x---x---|


End on this note

e|-x-|
B|-3-|
G|-2-|
D|-0-|
A|-x-|
E|-2-|
************************************

| /   slide up
| \   slide down
| h   hammer-on
| p   pull-off
| ~   vibrato
| +   harmonic
| x   Mute note
| b   Bend
| pb  Pre-bend
| br  Bend release
| pbr Pre-bend release
| brb Bend release bend

************************************
Tap to rate this tab
 
# A B C D E F G H I J K L M N O P Q R S T U V W X Y Z