Song name
# A B C D E F G H I J K L M N O P Q R S T U V W X Y Z

John Mayer - Shadow Days tab

Tab for “SHADOW DAYS” by JOHN C. MAYER ass seen on the VEVO acoustic version.
Link: http://www.youtube.com/watch?v=uJpvUTDB4Ps

This is my first tab so...sorry if its messy. And if you find mistakes contact me.

Requirements
- Have a guitar.
- Know the Neon (another John M. song) technique.

Play every chord in the song with the Neon technique ... the parts that are different are tabbed.

Part 1

Main Chords
e---X-----10----X-----2----|
B---10----8-----3-----3----|
G---11----9-----4-----0----|
D---12----10----5-----X----|
A---X-----X-----X-----2----|
E---10----8-----3-----X----|

The first two times he goes throw those chords he does some changes to the usual Neon technique:

First:
e------------------------------|--10-|---------------|--2--|
B---10----------10-------------|--8--|---------------|--3--|
G---11--11----------11---------|--9--|---------------|--0--|
D--------------------------12--|--10-|----5----------|--X--|
A------------------------------|--X--|----------5/2--|--2--|
E---10------10---------10------|--8--|--3---5/7------|--X--|
        
Second:
e---X-----10--|---------------|--2--|
B---10----8---|---------------|--3--|
G---11----9---|---------------|--0--|
D---12----10--|----5----------|--X--|
A---X-----X---|----------5h7--|--2--|
E---10----8---|--3---5/7------|--X--|



Part 2 - 0:35

“Hard times let me see ...”
e--------------|--2--|
B--3--3--3--5--|--3--|
G--------------|--0--|
D--------------|--X--|
A-----0--2--5--|--2--|
E--3-----------|--X--|

“I’m a good man ...”
e----X----X----X----X----2----0----|
B----3----3----3----3----3----3----|
G----2----4----2----2----0----0----|
D----0----5----0----2----X----X----|
A----X----X----2----0----2----2----|
E----2----3----X----X----X----X----|

“Now I’m right here ...”
e----X----X----X----X----X----|
B----3----3----3----2----3----|
G----2----4----2----2----4----|
D----0----5----0----2----5----|
A----X----X----2----0----X----|
E----2----3----X----X----3----|

Part 3 - 1:30

“Hard Times let me be ...”
Same as Part 2

“I’m a good man ...”
e----X----X----X----X----X----|
B----3----3----3----2----3----|
G----2----4----2----2----4----|
D----0----5----0----2----5----|
A----X----X----2----0----X----|
E----2----3----X----X----3----|

“Now I’m right here ...”
e----X----X----X----X----|
B----3----3----3----3----|
G----2----4----2----0----|
D----0----5----0----0----|
A----X----X----2----X----|
E----2----3----X----3----|

PART 4 - 1:57

I´m not thaaat sure about this part 

e----X----0----0----0----0-----0----?----X-----X-----9----X----X-|
B----3----2----3----3----10----3----?----10----12----7----5----3-|
G----2----2----2----2----11----4----?----11----11----7----6----4-|
D----0----0----0----2----12----5----?----12----12----9----7----5-|
A----X----X----2----0----X-----X----?----X-----10----X----X----X-|
E----2----3----X----X----10----3----?----10----X-----7----5----3-|

PART 5 - 2:51

The end is almost the same as the Part 1

e---0-----10----|------------------------2--0-|
B---10----8-----|-----------------------3-----|
G---11----9-----|----------------------0------|
D---12----10----|----5----------------X-------|
A---X-----X-----|----------5/2-------2--------|
E---10----8-----|--3---5/7----------X---------|

THE END

THAT’S ALL, HOPE IT HELPED ;)
Tap to rate this tab
# A B C D E F G H I J K L M N O P Q R S T U V W X Y Z